Guitar Tabs for Pohádka

(/) Slide Up  (\) Slide Down  (h) Hammer On  (p) Pull Off  (b) Bend (r) Release (v) Vibrato (x) Muted

Tabs for Song : 

Song lyrics here
E|-----------------------------1--------------3--------------------------------------------------------1--------------
B|--------------1--------------1--------------3--------------1-----------------------1-----------------1--------------
G|--------------2--------------2--------------4--------------2-----------------------2-----------------2--------------
D|--------------2--------------3--------------5--------------2--2---0h2--0-----------2---0h2--0--------3--------------
A|--0--3--2--0-----0--2--3-----3------3\5-----5--5--3--2--0-----------------3--2--0--------------3-----3------3\5-----
E|--------------------------1--1--1--------3--3-----------------------------------------------------1--1--1-----------

Song lyrics here
-
E|-----3-----------------
B|-----3--------------1--
G|-----4--------------2--
D|-----5--------------2--
A|-----5--5--3--2--0-----
E|--3--3-----------------


Paste any tab in acousterr's tab maker and we'll play it !!!
Now supports capo and sound effects for vibrato/pull-off/hammer/bends/mutes etc !!! Checkout help section
tabs and chords, guitar tabs, music transcription, music technology, deep learning, music information retrieval, transcribe into tabs & chords, chordify, music renditions, songsterr, reverbnation, tabulature, bollywood chords, ultimate guitar, yousician, guitar lessons, acoustic guitar, electric guitar, guitar tuner, 911 tabs