Guitar Tabs for Patang

(/) Slide Up  (\) Slide Down  (h) Hammer On  (p) Pull Off  (b) Bend (r) Release (v) Vibrato (x) Muted

Tabs & Chords
BPM : 156.0
Check Track 2 for Chord Positions 

          C           C                                                                 Cm       
E|--8--------------------------------------------------------------------------------------------
B|-----------------------------------------------------------8-----8--8-----8-----8-----8--------
G|--------0-----------------------5-----5-----5--0-----5-----------------------------------------
D|--------------8-----8-----8-----------------------------------------------------------------8--
A|-----------------------------------------------------------------------------------------------
E|-----------------------------------------------------------------------------------------------

       C                             Cm                            
E|-----------------------------------------------------------------
B|--------------------------------------------------------------8--
G|-----5-----5-----0-----5-----0-----7-----8-----7-----------------
D|--------------------------------------------------8--------------
A|-----------------------------------------------------------------
E|--------------------------------------------------------8--------



Guitar Tabs for Patang






          C           C                                                                 Cm       
E|--------0-----------0-----------------------------------------------------------------3--------
B|--------1-----------1-----------------------------------------------------------------4--------
G|--------0-----------0-----------------------------------------------------------------5--------
D|--------2-----------2-----------------------------------------------------------------5--------
A|--------3-----------3-----------------------------------------------------------------3--------
E|-----------------------------------------------------------------------------------------------

       C                             Cm                            
E|-----0-----------------------------3-----------------------------
B|-----1-----------------------------4-----------------------------
G|-----0-----------------------------5-----------------------------
D|-----2-----------------------------5-----------------------------
A|-----3-----------------------------3-----------------------------
E|-----------------------------------------------------------------

tabs and chords, guitar tabs, music transcription, music technology, deep learning, music information retrieval, transcribe into tabs & chords, chordify, music renditions, songsterr, reverbnation, tabulature, bollywood chords, ultimate guitar, yousician, guitar lessons, acoustic guitar, electric guitar, guitar tuner, 911 tabs