Guitar Tabs for Pyaar Deewan Hota Hai - Kati Patang

(/) Slide Up  (\) Slide Down  (h) Hammer On  (p) Pull Off  (b) Bend (r) Release (v) Vibrato

Tabs for Song : Pyaar Deewana Hota Hai

pyar deewana hota hai
E|--0-----3--0-----------1--------
B|--------------1--3--3-----3-----
G|--------------------------------
D|--------------------------------
A|--------------------------------
E|--------------------------------

mastana hota hai
E|-----------0-----1--0-----
B|--------1-----3-----------
G|--3--3--------------------
D|--------------------------
A|--------------------------
E|--------------------------
 
har khushi se har gm se
E|--0-----3--0-----------1--------
B|--------------1--3--3-----3-----
G|--------------------------------
D|--------------------------------
A|--------------------------------
E|--------------------------------

begana hota hai
E|-----------0--------------
B|--------1-----3--1--1-----
G|--3--3--------------------
D|--------------------------
A|--------------------------
E|--------------------------

shama kahe parwane se
E|--0--1--3--0--1--3--3--3--3--3--3-----
B|--------------------------------------
G|--------------------------------------
D|--------------------------------------
A|--------------------------------------
E|--------------------------------------

pare chala jaa
E|--0--3--0--3--5--6--5-----
B|--------------------------
G|--------------------------
D|--------------------------
A|--------------------------
E|--------------------------

meri tarha jal jaega
E|--6--5--3--6--5--3--3--3--3--3--------
B|--------------------------------3-----
G|--------------------------------------
D|--------------------------------------
A|--------------------------------------
E|--------------------------------------

yahaan nahi aa
E|-----0-----0--1--0-----
B|--3-----3--------------
G|-----------------------
D|-----------------------
A|-----------------------
E|-----------------------

wo nahi sunta usko
E|--0-----3--0--------------1--------
B|--------------1--1--3--3-----3-----
G|-----------------------------------
D|-----------------------------------
A|-----------------------------------
E|-----------------------------------

jal jana hota hai
E|-----------0-----1--0-----
B|--------1-----3-----------
G|--3--3--------------------
D|--------------------------
A|--------------------------
E|--------------------------

har khushi se har gam se
E|--0-----3--0-----------1--------
B|--------------1--3--3-----3-----
G|--------------------------------
D|--------------------------------
A|--------------------------------
E|--------------------------------

begana hota hai
E|-----------0--------------
B|--------1-----3--1--1-----
G|--3--3--------------------
D|--------------------------
A|--------------------------
E|--------------------------

Add more lines by placing cursor below and adding notes
tabs and chords, guitar tabs, music contests, music covers, songsterr, reverbnation, renditions, tabulature, bollywood chords, ultimate guitar, yousician, guitar lessons, torrins, fender, gibson, acoustic guitar, electric guitar, youtube covers, gootar, guitar tuner, A-Z tabs, 911 tabs