Guitar Tabs for Passato

(/) Slide Up  (\) Slide Down  (h) Hammer On  (p) Pull Off  (b) Bend (r) Release (v) Vibrato (x) Muted

Tabs for Song : 

Song lyrics here
E|-----------0--0-----------0--0--------------------
B|-----------0--0-----------0--0--------------------
G|-----------7--6-----------0--0--------------------
D|--9--7--5--5--5-----------7--9--------------------
A|-----------------9--7--5--5--7--------------------
E|--------------------------------------------------

E|------------------0\9---0\7---0\5--0--0--
B|------------------0\----0\----0\---0--0--
G|------------------7\----5\----3\---2--5--
D|------------------9\----7\----5\---4--7--
A|-----------------------------------------
E|-----------------------------------------

E|--
B|--
G|--
D|--
A|--
E|--

Song lyrics here
E|--
B|--
G|--
D|--
A|--
E|--

Paste any tab in acousterr's tab maker and we'll play it !!!
Now supports capo and sound effects for vibrato/pull-off/hammer/bends/mutes etc !!! Checkout help section
tabs and chords, guitar tabs, music transcription, music technology, deep learning, music information retrieval, transcribe into tabs & chords, chordify, music renditions, songsterr, reverbnation, tabulature, bollywood chords, ultimate guitar, yousician, guitar lessons, acoustic guitar, electric guitar, guitar tuner, 911 tabs