Guitar Tabs for Pasorapa

E|--------------3--2--3--2--3--3-----5v-------3--2--------------------2--3--------------------------
B|-----3v----------------------------------------------------5v----5-----------5--3-----------------
G|-----------------------------------------------------------------------------------4--------------
D|--------------------------------------------------------------------------------------------------
A|--------------------------------------------------------------------------------------------------
E|--------------------------------------------------------------------------------------------------


E|-----------------------------------------------------------2--3--------3-----2v----------
B|-----5v-------3-----5v-------3--5--3-----------------5v-5-----------5--------------------
G|-----------5--------------5-----------5--4v----------------------------------------------
D|-----------------------------------------------------------------------------------------
A|-----------------------------------------------------------------------------------------
E|-----------------------------------------------------------------------------------------

E|-----------3--2--3--2--3--3-----5v-------3--2-----------8v----8--10-12----10-12-10----------
B|-----3v-------------------------------------------------------------------------------------
G|--------------------------------------------------------------------------------------------
D|--------------------------------------------------------------------------------------------
A|--------------------------------------------------------------------------------------------
E|--------------------------------------------------------------------------------------------


E|-----3v----3--3--3-----2-----------------------------------------------------------
B|--------------------------5--3--------3--------------------------------------------
G|--------------------------------5--4-----------2v----2--4--5-----4--2--------------
D|-----------------------------------------------------------------------5-----------
A|-----------------------------------------------------------------------------------
E|-----------------------------------------------------------------------------------
tabs and chords, guitar tabs, music transcription, music technology, deep learning, music information retrieval, transcribe into tabs & chords, chordify, music renditions, songsterr, reverbnation, tabulature, bollywood chords, ultimate guitar, yousician, guitar lessons, acoustic guitar, electric guitar, guitar tuner, 911 tabs