Guitar Tabs for On The Willows

(/) Slide Up  (\) Slide Down  (h) Hammer On  (p) Pull Off  (b) Bend (r) Release (v) Vibrato (x) Muted

Tabs for Song : 
BPM : 90

Verse
Repeat 5 times
A2
E|-----------------------------0--------------------------
B|-----------2--------0--2--------0--2--0--2-----2--------
G|--------2-----2-----------2-----------------2-----2-----
D|-----2-----------2-----------------------------------2--
A|--------------------------------------------------------
E|--------------------------------------------------------
 B add 4
E|-----------------------------0--------------------------
B|--------0--4--0-----0--4--0-----0--4--0--4--0--4--0-----
G|--------------------------------------------------------
D|-----4-----------4-----------------------------------4--
A|--------------------------------------------------------
E|--------------------------------------------------------
Repeat twice
Bm7 add 4                      E7
E|--------------------0--------------------------0--------
B|-----------2--------------------------0-----------------
G|--------2-----2--------------------1-----1--------------
D|-----4-----------4--------------0-----------0-----------
A|--------------------------------------------------------
E|--------------------------------------------------------
Repeat form again, second time play first figure twice

Chorus
Repeat twice
Asus2                           F#m7 add 4                 G Maj7                C2              
E|--------------------0--------------------------0-------|------------------------------------------0-------|
B|-----------0-----------0--------------0-----------0----|---------0-----------------------3-----------3----|
G|--------2-----2-----------2--------2-----2-----------2-|------0-----0-----------------0-----0-----------0-|
D|-----2-----------2--------------2-----------2----------|---4-----------4--0--------0-----------0----------|
A|-------------------------------------------------------|--------------------------------------------------|
E|-------------------------------------------------------|--------------------------------------------------|
Asus2                                                   G Maj7
E|-----------------0--------------------------0-------|-----------------------------------------------------|
B|--------0-----------0--------------0-----------0----|------------------0--------------------------0-------|
G|-----2-----2-----------2--------2-----2-----------2-|---------0-----------0--------------0-----------0----|
D|--2-----------2--------------2-----------2----------|---0--4-----4--0--------4-----0--4-----4--0--------4-|
A|----------------------------------------------------|-----------------------------------------------------|
E|----------------------------------------------------|-----------------------------------------------------|
G Maj7                         F#m7 add 4                  G Maj7      (repeat twice)
E|----------------------------|-----------------------------------------------------|
B|--------------------0-------|------------------0--------------------------0-------|
G|-----------0-----------0----|---------2-----------2--------------0-----------0----|
D|-----0--4-----4--0--------4-|------4-----4-----------4-----0--4-----4--0--------4-|
A|----------------------------|---4-----------4-------------------------------------|
E|----------------------------|-----------------------------------------------------|
F#m7 add 4                   Dm9                       Em9                            rit.
E|-----------------------------------1-----0--1-------|---------0-------------------------------------------|
B|-----------------0--------------1-----1--------1----|------0-----0-----------0--------0--------0----------|
G|--------2-----------2-------------------------------|---0-----------0-----0--------0--------0-----------0-|
D|-----4-----4-----------4-----0--------------------0-|------------------4--------2--------0-----------0----|
A|--4-----------4-------------------------------------|---------------------------------------------2-------|
E|----------------------------------------------------|-----------------------------------------------------|

Verse again, except you do that first form two extra times and then end on an A2 chord






tabs and chords, guitar tabs, music transcription, music technology, deep learning, music information retrieval, transcribe into tabs & chords, chordify, music renditions, songsterr, reverbnation, tabulature, bollywood chords, ultimate guitar, yousician, guitar lessons, acoustic guitar, electric guitar, guitar tuner, 911 tabs