Guitar Tabs for Ohhhhh Babyyyyyy

(/) Slide Up  (\) Slide Down  (h) Hammer On  (p) Pull Off  (b) Bend (r) Release (v) Vibrato (x) Muted

Tabs for Song : 

Song lyrics here
E|--7--7--7--7--7--7--7--7--7--7--7--7--7--7--7--7-----------3x
B|--9--9--9--9--9--9--9--9--9--9--9--9--9--8--8--8-----------
G|--9--9--9--9--9--9--9--9--9--9--9--9--9--7--7--7-----------
D|-----------------------------------------------------------
A|-----------------------------------------------------------
E|-----------------------------------------------------------

E|--3--3--3--3--5--5--5--5--5--5--5--5--5--5--5--5--
B|--5--5--5--5--7--7--7--7--5--5--5--5--7--5--7--5--
G|--5--5--5--5--7--7--7--7--6--6--6--6--7--6--7--6--
D|--------------------------------------------------
A|--------------------------------------------------
E|--------------------------------------------------

Song lyrics here
E|--
B|--
G|--
D|--
A|--
E|--

Paste any tab in acousterr's tab maker and we'll play it !!!
Now supports capo and sound effects for vibrato/pull-off/hammer/bends/mutes etc !!! Checkout help section
tabs and chords, guitar tabs, music transcription, music technology, deep learning, music information retrieval, transcribe into tabs & chords, chordify, music renditions, songsterr, reverbnation, tabulature, bollywood chords, ultimate guitar, yousician, guitar lessons, acoustic guitar, electric guitar, guitar tuner, 911 tabs