Guitar Tabs for Njosnavelin

(/) Slide Up  (\) Slide Down  (h) Hammer On  (p) Pull Off  (b) Bend (r) Release (v) Vibrato (x) Muted

Tabs for Song : 

Song lyrics here
E|--------------1--
B|--------------1--
G|--------2--------
D|-----3-----3-----
A|-----------------
E|--1--------------

E|--0--------------
B|--1-----1-----1--
G|--------2--2-----
D|-----2-----------
A|--0--------------
E|-----------------

E|--------------------
B|--------------1-----
G|--------0--------0--
D|-----2-----2--------
A|--3-----------------
E|--------------------

E|-----------
B|--0--------
G|--------0--
D|-----0-----
A|-----------
E|--3--------

E|-----------------1-----
B|-----------------1-----
G|---0h2-----2--------2--
D|--------3-----3--------
A|-----------------------
E|-----1-----------------

E|--0--------------
B|--1-----3-----3--
G|-----------2-----
D|-----2-----------
A|--0--------------
E|-----------------

E|-----------------
B|--------0--------
G|-----------0-----
D|-----0--------0--
A|-----------------
E|--3--------------

E|--------------------
B|--1--------1--------
G|-----0---------0h2--
D|--------0-----------
A|--------------------
E|--------------------

E|--------------0--0--
B|--1--------1--------
G|-----0--------------
D|--------0-----------
A|--------------------
E|--------------------

E|--------------0--
B|--------1-----1--
G|--------2--2-----
D|-----3-----------
A|-----------------
E|--1--------------

E|--------------0--
B|--------1-----1--
G|--------2--2-----
D|-----2-----------
A|--0--------------
E|-----------------

E|--------------0--
B|--------1-----0--
G|-----------0-----
D|-----2-----------
A|--3--------------
E|-----------------

E|-----------0--0--
B|-----------------
G|--------0--------
D|-----0-----------
A|-----------------
E|--3--------------

E|-----------------
B|--------3-----3--
G|--------2--2-----
D|-----3-----------
A|-----------------
E|--1--------------

E|--------------
B|-----1-----3--
G|-----2--------
D|--------2-----
A|--0-----------
E|--------------

E|-----------------
B|--------0--------
G|-----------0-----
D|-----0--------0--
A|-----------------
E|--3--------------

E|--------------
B|--1--------1--
G|-----0--------
D|--------0-----
A|--------------
E|--------------

tabs and chords, guitar tabs, music transcription, music technology, deep learning, music information retrieval, transcribe into tabs & chords, chordify, music renditions, songsterr, reverbnation, tabulature, bollywood chords, ultimate guitar, yousician, guitar lessons, acoustic guitar, electric guitar, guitar tuner, 911 tabs