Guitar Tabs for Nikde

(/) Slide Up  (\) Slide Down  (h) Hammer On  (p) Pull Off  (b) Bend (r) Release (v) Vibrato (x) Muted

Tabs for Song : 

Song lyrics here
E|--4--------------------5--------4--------4-----------------------------------
B|-----5--7--4--------------4--5--------------5--7--4-----------5--4--5--5-----
G|--------------6-----6--------------------------------6-----6-----------------
D|-----------------------------------------------------------------------------
A|-----------------------------------------------------------------------------
E|-----------------------------------------------------------------------------

E|--------4--5--4-----------4--5--4--------------------------------7--5--4--------
B|-----5-----------7--5--------------7--5-----7--7--5--7--7--7--7-----------5--2--
G|--------------------------------------------------------------------------------
D|--------------------------------------------------------------------------------
A|--------------------------------------------------------------------------------
E|--------------------------------------------------------------------------------

E|--4--5--4--------------4--5--4--------------------------------------------------------
B|-----------7--5-----5-----------7--5--------5--7--7--5--7--7--7--7--7--7--7--10-9--7--
G|--------------------------------------------------------------------------------------
D|--------------------------------------------------------------------------------------
A|--------------------------------------------------------------------------------------
E|--------------------------------------------------------------------------------------

E|-----4--5--4-----------4--5--4-----------------------------------7--5--4-----------
B|--5-----------7--5--------------7--5--------7--7--5--7--7--7--7-----------5--2-----
G|-----------------------------------------------------------------------------------
D|-----------------------------------------------------------------------------------
A|-----------------------------------------------------------------------------------
E|-----------------------------------------------------------------------------------

E|-----------------------------------7--5--4--
B|-----5--5--9--10-9--7-----5--5--5-----------
G|--------------------------------------------
D|--------------------------------------------
A|--------------------------------------------
E|--------------------------------------------

E|--------------------5--5--4--4--1--------
B|--7--7--5--7--7--7-----------------4--5--
G|-----------------------------------------
D|-----------------------------------------
A|-----------------------------------------
E|-----------------------------------------

panna maria
E|--4--------------------------4--------4-----------4-----------------------------------
B|-----5--7--4--------------------4--5--------5--5-----5--7--4--------------5--4--5--5--
G|--------------6-----6--6--6-----------------------------------6-----6--6--------------
D|--------------------------------------------------------------------------------------
A|--------------------------------------------------------------------------------------
E|--------------------------------------------------------------------------------------
ježíšek už 
E|--4-----------------------4--------4--------------4--------------------------------------------
B|-----5--7--9--9--------------4--5-----------5--5-----5--7--4-----------------------5--4--5--5--
G|--------------------6--6--------------------------------------6-----6--6--6--6--6--------------
D|-----------------------------------------------------------------------------------------------
A|-----------------------------------------------------------------------------------------------
E|-----------------------------------------------------------------------------------------------

Paste any tab in acousterr's tab maker and we'll play it !!!
Now supports capo and sound effects for vibrato/pull-off/hammer/bends/mutes etc !!! Checkout help section
tabs and chords, guitar tabs, music transcription, music technology, deep learning, music information retrieval, transcribe into tabs & chords, chordify, music renditions, songsterr, reverbnation, tabulature, bollywood chords, ultimate guitar, yousician, guitar lessons, acoustic guitar, electric guitar, guitar tuner, 911 tabs