Guitar Tabs for Nightshade

(/) Slide Up  (\) Slide Down  (h) Hammer On  (p) Pull Off  (b) Bend (r) Release (v) Vibrato (x) Muted

Tabs for Song : 

Song lyrics here
E|--------------------------------------------------------------------------------------------------------
B|--------------------------------------------------------------------------------------------------------
G|--------------------------------------------------------------------------------------------------------
D|--------------------------------------------------------------------------------------------------------
A|--5--5--5--5--5-----------------5--5--5--5--5-----------------7--7--7--7--7--9--9--9--9--11-11-11-11-11-
E|-----------------5--5--5--5--5-----------------5--5--5--5--5--5--5--5--5--5--7--7--7--7--9--9--9--------

Song lyrics here
E|--------------------------------------------------------------------------------------------------------
B|--------------------------------------------------------------------------------------------------------
G|--------------------------------------------------------------------------------------------------------
D|-----------------------------------------------------------------------------------------0--0--0--0--0--
A|--11-9--9--9--------------------11-11-11-9--9--9--------------------9--8--7--8--7--6--5-----------------
E|--------------11-11-11-9--9--9--------------------11-11-11-9--9--9-----------------------5--5--5--3--3--

E|--------------------------------------------------------------------------------------------------------
B|--------------------------------------------------------------------------------------------------------
G|--------------------------------0--0--0--0--0--0--0--0--0--0--0--0--0--0--0--0--0--0--0--0--0--0--0--0--
D|--0--0--0--0--0--0--0--0--0--0-----------------------------------------------0--0--0--0--0--0--0--0--0--
A|--------------------------------------------------------------------------------------------------------
E|--3--7--7--7--6--6--6--8--8--8--5--5--5--3--3--3--7--7--7--6--6--6--8--8--8--5--5--5--3--3--3--7--7--7--

E|--------------------------------------------------------------------------------------------------------
B|--------------------------------------------------------------------------------------------------------
G|--0--0--0--0--2--3--3--3--2-----------2--3--3--3--2--1--0--3--1--2-----------2--2--2--3--3--3--2--1--0--
D|--0--0--0--------------------5--5--5--------------------------------2--3--0-----------------------------
A|--------------------------------------------------------------------------------------------------------
E|--8--8--8--------------------------------------------------------------------------------------------

E|--
B|--
G|--
D|--
A|--
E|--






Paste any tab in acousterr's tab maker and we'll play it !!!
Now supports capo and sound effects for vibrato/pull-off/hammer/bends/mutes etc !!! Checkout help section
tabs and chords, guitar tabs, music transcription, music technology, deep learning, music information retrieval, transcribe into tabs & chords, chordify, music renditions, songsterr, reverbnation, tabulature, bollywood chords, ultimate guitar, yousician, guitar lessons, acoustic guitar, electric guitar, guitar tuner, 911 tabs