Guitar Tabs for Ney

(/) Slide Up  (\) Slide Down  (h) Hammer On  (p) Pull Off  (b) Bend (r) Release (v) Vibrato (x) Muted

Tabs & Chords
BPM : 125.0
Check Track 2 for Chord Positions 

                C#    C#m                                 A        C#       C#m               
E|--4-----------------5--5--------4-----5--5-----4--4-----5--5-----4--------0--5-----5-----4--
B|--------------4-----------------------------------------------------------------------------
G|--------------------------6-----------------------------------------6-----------------------
D|--------------------------------------------------------------------------------------------
A|--------------------------------------------------------------------------------------------
E|--------7-----------------------------------------------------------------------------------

                                        A                    
E|-----4--0-----------4-----5--0--------4--------9--7--------
B|--------------------------------------------0--------------
G|--------------6--6-----------------------------------------
D|--------------------------------6--------------------------
A|--------------------------------------------------------0--
E|-----------------------------------------------------------

Guitar Tabs for Ney






                C#    C#m                                 A        C#       C#m               
E|--------------4-----4-----------------------------------0--------4--------4-----------------
B|--------------6-----5-----------------------------------2--------6--------5-----------------
G|--------------6-----6-----------------------------------2--------6--------6-----------------
D|--------------6-----6-----------------------------------2--------6--------6-----------------
A|--------------4-----4-----------------------------------0--------4--------4-----------------
E|--------------------------------------------------------------------------------------------

                                        A                    
E|--------------------------------------0--------------------
B|--------------------------------------2--------------------
G|--------------------------------------2--------------------
D|--------------------------------------2--------------------
A|--------------------------------------0--------------------
E|-----------------------------------------------------------

tabs and chords, guitar tabs, music transcription, music technology, deep learning, music information retrieval, transcribe into tabs & chords, chordify, music renditions, songsterr, reverbnation, tabulature, bollywood chords, ultimate guitar, yousician, guitar lessons, acoustic guitar, electric guitar, guitar tuner, 911 tabs