Guitar Tabs for New1999

(/) Slide Up  (\) Slide Down  (h) Hammer On  (p) Pull Off  (b) Bend (r) Release (v) Vibrato (x) Muted

Tabs for Song : 

Song lyrics here
E|-----------------------------------------------------------------------------------------------------
B|-----------------------------------------------------------------------------------------------------
G|--------------9-----6-----------------------------------------9-----6-----------------------7--7--6--
D|--------------------------------9------------7h-9p7-----------------------------9--------------------
A|-----7--7--7-----7-----7--7--7-----7--7--7-----------7--7--7-----7-----7--7--7-----7--7--7-----------
E|-----------------------------------------------------------------------------------------------------

Song lyrics here
E|-----------------------------------------------------------------------------------------------------------------------------------
B|---2/7v----7--9--10----7--9--10----7--9--10-9--7-----------------------------------------------------------------------------------
G|--------------------------------------------------9v----9--7--6-----6--7--9-----9--7--6-----6--7-----6-----------------------------
D|-----------------------------------------------------------------------------------------------------------9-----9--9--7--9--7--7--
A|-----------------------------------------------------------------------------------------------------------------------------------
E|-----------------------------------------------------------------------------------------------------------------------------------

E|-----------------------------------------------------------------------------------------------------------16-17-19----16-17-19----
B|--------------7--9--10v---10-9--7-----7--9--10/12/---14----12-14-15----12-14-15----14-15-17----14-15-17----------------------------
G|-----6--7--9-----------------------------------------------------------------------------------------------------------------------
D|--9--------------------------------------------------------------------------------------------------------------------------------
A|-----------------------------------------------------------------------------------------------------------------------------------
E|-----------------------------------------------------------------------------------------------------------------------------------
 
Paste any tab in acousterr's tab maker and we'll play it !!!
Now supports capo and sound effects for vibrato/pull-off/hammer/bends/mutes etc !!! Checkout help section
tabs and chords, guitar tabs, music transcription, music technology, deep learning, music information retrieval, transcribe into tabs & chords, chordify, music renditions, songsterr, reverbnation, tabulature, bollywood chords, ultimate guitar, yousician, guitar lessons, acoustic guitar, electric guitar, guitar tuner, 911 tabs