Guitar Tabs for Negaraku

(/) Slide Up  (\) Slide Down  (h) Hammer On  (p) Pull Off  (b) Bend (r) Release (v) Vibrato (x) Muted

Tabs for Song : 

Song lyrics here
E|--------7--7--------------7--------------------------------------------------
B|-----------8-----------------8--7--8--10-------------7-----7--8--10-10-8--7--
G|--7--7-----7--------7--7-----------------------7--9--------------------------
D|--------------------------------------------7--------------------------------
A|-----------------------------------------------------------------------------
E|-----------------------------------------------------------------------------

E|--------------------------------7-----------------------------------------
B|-----------7-----7--8--7--8--10----------8--10-10----8--7--8--7-----------
G|-----7--9-----------------------------7-----------7--------------9--7--7--
D|--7-----------------------------------------------------------------------
A|--------------------------------------------------------------------------
E|--------------------------------------------------------------------------

Song lyrics here
E|--
B|--
G|--
D|--
A|--
E|--

Paste any tab in acousterr's tab maker and we'll play it !!!
Now supports capo and sound effects for vibrato/pull-off/hammer/bends/mutes etc !!! Checkout help section
tabs and chords, guitar tabs, music transcription, music technology, deep learning, music information retrieval, transcribe into tabs & chords, chordify, music renditions, songsterr, reverbnation, tabulature, bollywood chords, ultimate guitar, yousician, guitar lessons, acoustic guitar, electric guitar, guitar tuner, 911 tabs