Guitar Tabs for Naah - Harrdy Sandhu Tabs

(/) Slide Up  (\) Slide Down  (h) Hammer On  (p) Pull Off  (b) Bend (r) Release (v) Vibrato

Tabs for Song : Naah

Oh kudi meinu kehndi Mainu jutti le de sohneya
E|--------------3--5--5--5--5--6--5--3--3--3-----5--3--------
B|--6--3--5--6--------------------------------6--------6--5--
G|-----------------------------------------------------------
D|-----------------------------------------------------------
A|-----------------------------------------------------------
E|-----------------------------------------------------------

Main keha naah goriye Na na na naah goriye
E|--------------------------------------------------
B|--5--5--5--5--6--5--3--5--5--5--5--5--5--6--5--3--
G|--------------------------------------------------
D|--------------------------------------------------
A|--------------------------------------------------
E|--------------------------------------------------

Ho kann jhumke nu Tarasde reh gaye sohneya
E|--------------3--5--5--5--5--5--6--5--3--3--3-----5--3--------
B|--6--3--5--6-----------------------------------6--------6--5--
G|--------------------------------------------------------------
D|--------------------------------------------------------------
A|--------------------------------------------------------------
E|--------------------------------------------------------------

Main keha naah goriye Na na na naah goriye
E|--------------------------------------------------
B|--5--5--5--5--6--5--3--5--5--5--5--5--5--6--5--3--
G|--------------------------------------------------
D|--------------------------------------------------
A|--------------------------------------------------
E|--------------------------------------------------

Ikko cheez mere kol pyar baliye
E|--------------3--3-----5--5--5--5--
B|--3--3--6--3--------6--------------
G|-----------------------------------
D|-----------------------------------
A|-----------------------------------
E|-----------------------------------

Aiven na gareeba nu tu maar sohneya
E|--------------3--------3--5--5--5--5--
B|--3--3--6--5-----6--5-----------------
G|--------------------------------------
D|--------------------------------------
A|--------------------------------------
E|--------------------------------------

Ikko cheez mere kol pyar baliye
E|--------------3--3-----5--5--5--5--
B|--3--3--6--3--------6--------------
G|-----------------------------------
D|-----------------------------------
A|-----------------------------------
E|-----------------------------------

Aiven na gareeba nu tu
E|--------------3--------5--
B|--3--3--6--5-----6--5-----
G|--------------------------
D|--------------------------
A|--------------------------
E|--------------------------

Saari duniya de kendi bangle pai gaye sohneya
E|--------------3--5--5--5--5--5--6--5--3--3-----5--3--------
B|--6--3--5--6--------------------------------6--------6--5--
G|-----------------------------------------------------------
D|-----------------------------------------------------------
A|-----------------------------------------------------------
E|-----------------------------------------------------------

Main keha naah goriye Na na na naah goriye
E|-----------------------------------------------
B|--5--5--5--6--5--3--5--5--5--5--5--5--6--5--3--
G|-----------------------------------------------
D|-----------------------------------------------
A|-----------------------------------------------
E|-----------------------------------------------

Again Repeat Part 1..
tabs and chords, guitar tabs, music transcription, music technology, deep learning, music information retrieval, transcribe into tabs & chords, chordify, music renditions, songsterr, reverbnation, tabulature, bollywood chords, ultimate guitar, yousician, guitar lessons, acoustic guitar, electric guitar, guitar tuner, 911 tabs