Guitar Tabs for Raabta - Agent Vinod Tabs

(/) Slide Up  (\) Slide Down  (h) Hammer On  (p) Pull Off  (b) Bend (r) Release (v) Vibrato

Tabs for Song : Raabta

Kehte Hain Khuda Ne Iss Jahan Mein Sabhi Ke Liye
Kisi Na Kisi Ko Hai Banaya Har Kisi Ke Liye
E|--------------------------------------------------
B|--------------------------------------------------
G|-----4--5--4--5--4--7--5-----4--5--4--5--4--7--5--
D|--5-----------------------7-----------------------
A|--------------------------------------------------
E|--------------------------------------------------

Tera Milna Hai Uss Rab Ka Ishaara Maanu
E|-----------------------------------------------------
B|--------------------5--------------------------5-----
G|-----5--7--5--7--5-----7--------5--7--5--7--5-----7--
D|--7--------------------------7-----------------------
A|-----------------------------------------------------
E|-----------------------------------------------------

Mujhko Banaya Tere Jaise Hi Kisi Ke Liye 
E|--------------------------------------------------
B|-----------------------------------------------5--
G|--7--5--5--4--4-----------------4-----4--5--7-----
D|-----------------7--7--5--5--7-----7--------------
A|--------------------------------------------------
E|--------------------------------------------------

Kehte Hain Khuda Ne Iss
E|--------------------------
B|--5-----------------------
G|-----7--7--5--5--4--7--5--
D|--------------------------
A|--------------------------
E|--------------------------

Jahan Mein Sabhi Ke Liye
E|--------------------------
B|--------------------------
G|-----4--5--4--5--4--7--5--
D|--7-----------------------
A|--------------------------
E|--------------------------

Kisi Na Kisi Ko Hai 
E|--------------------------
B|--------------------------
G|-----4--5--4--5--4--7--5--
D|--7-----------------------
A|--------------------------
E|--------------------------

Banaya Har Kisi Ke Liye
E|--------------------------
B|--------------------------
G|-----4--5--4--5--4--7--5--
D|--7-----------------------
A|--------------------------
E|--------------------------

Tera Milna Hai Uss Rab Ka Ishaara Maanu
Mujhko Banaya Tere Jaise Hi Kisi Ke Liye (Same As Previous One)

Kuch Toh Hai Tujhse Raabta 
E|-----------------------3--3-----------------
B|--5-----5-----5-----5--------6--5-----------
G|-----7-----7-----7-----------------7--7--5--
D|--------------------------------------------
A|--------------------------------------------
E|--------------------------------------------

Kuch Toh Hai Tujhse Raabta
E|-----------------------------------
B|-----------------------5--5--------
G|--5--4--5--4--5--4--5--------------
D|-----------------------------5--7--
A|-----------------------------------
E|-----------------------------------

Kaise Hum Jaane Hume Kya Pata 
Kuch Toh Hai Tujhse Raabta (Same As Previous One)

Tu Humsafar Hai, Phir Kya Fikar Hai
E|-----------------------------------------
B|-----6--5--------5--------6--5--------5--
G|-----------7--7-----------------7--7-----
D|--7--------------------7-----------------
A|-----------------------------------------
E|-----------------------------------------

Repeat Previous One...

Banaya Har Kisi Ke Liye
E|--------------------------
B|--5-----6--5--------------
G|-----7--------7--4--7--5--
D|--------------------------
A|--------------------------
E|--------------------------



tabs and chords, guitar tabs, music contests, music covers, songsterr, reverbnation, renditions, tabulature, bollywood chords, ultimate guitar, yousician, guitar lessons, torrins, fender, gibson, acoustic guitar, electric guitar, youtube covers, gootar, guitar tuner, A-Z tabs, 911 tabs