Guitar Tabs for Sanam Teri Kasam - Ankit Tiwari Tabs

(/) Slide Up  (\) Slide Down  (h) Hammer On  (p) Pull Off  (b) Bend (r) Release (v) Vibrato

Tabs for Song : Sanam Teri Kasam ( Without Capo )

Intro (2x)
E|-----------------------------------------------------------
B|---6/8--6--8--9--6---6/8--6--8--9--6---6/8--6--4--3---3/6--
G|-----------------------------------------------------------
D|-----------------------------------------------------------
A|-----------------------------------------------------------
E|-----------------------------------------------------------

Intro
E|--11-10-8--------------11-10-8-----8--11-10-8-----------8--
B|-----------11-8-----------------11-------------11-8--11----
G|-----------------10-----------------------------------------
D|-----------------------------------------------------------
A|-----------------------------------------------------------
E|-----------------------------------------------------------

Betahasha dil ne Tujhko hi chaaha hai
E|-----------------------------------------------------------
B|---4/6--6--6--4--4--4------------4/6--6--6--4--4--4--------
G|-----------------------7--5--------------------------7--5--
D|-----------------------------------------------------------
A|-----------------------------------------------------------
E|-----------------------------------------------------------

Har duaa mein maine Tujhko hi maanga hai 
E|-----------------------------------------------------------
B|---4/6--6--6--4--4--4------------4/6--6--6--4--4--4--------
G|-----------------------7--5--------------------------7--5--
D|-----------------------------------------------------------
A|-----------------------------------------------------------
E|-----------------------------------------------------------

Tera jaana jaise koi baddua 
E|-----------------------------------------
B|-----------------------------------------
G|--3--3--5---5/7--3--3--5---5/7--5--3-----
D|--------------------------------------5--
A|-----------------------------------------
E|-----------------------------------------

Tera jaana jaise koi baddua
E|-----------------------------------------
B|-----------------------------------------
G|--3--3--5---5/7--3--3--5---5/7--5--5--5--
D|-----------------------------------------
A|-----------------------------------------
E|-----------------------------------------

Door jaaoge jo tum Mar jaayenge hum
E|--------------------------------------------------
B|--3--3--------------------------------------------
G|--------5--3--5--3--5--5--3--------3--------------
D|-----------------------------6--5-----6--5---3/5p-
A|--------------------------------------------------
E|--------------------------------------------------

Sanam teri kasam o..
E|-----------------------------------
B|--4---3/4p-----------------3/-4\3--
G|-----------5--3--3--5--5-----------
D|-----------------------------------
A|-----------------------------------
E|-----------------------------------

Sanam teri kasam o..
E|-----------------------------------
B|--4---3/4p-----------------3/-4\3--
G|-----------5--3--3--5--5-----------
D|-----------------------------------
A|-----------------------------------
E|-----------------------------------

Sanam teri kasam
E|--------------------------
B|--4---3/4p----------------
G|-----------5--3--3--5--5--
D|--------------------------
A|--------------------------
E|--------------------------

Tumhe dekhte hi aankhen ho jaati namm
E|--3--3--3--3--4---3/4p-------------------
B|-----------------------6--6--4--3---3/6--
G|-----------------------------------------
D|-----------------------------------------
A|-----------------------------------------
E|-----------------------------------------

Again Repeat Sanam Teri Kasam...
tabs and chords, guitar tabs, music contests, music covers, songsterr, reverbnation, renditions, tabulature, bollywood chords, ultimate guitar, yousician, guitar lessons, torrins, fender, gibson, acoustic guitar, electric guitar, youtube covers, gootar, guitar tuner, A-Z tabs, 911 tabs