Bass Tabs for Mysticism: Bass

(/) Slide Up  (\) Slide Down  (h) Hammer On  (p) Pull Off  (b) Bend (r) Release (v) Vibrato (x) Muted

Tabs for Mysticism : 

Song lyrics here
G|--------------------------
D|--------------------------
A|--7--7--3--3--5--5--2--2--
E|-------------------------- x7

Song lyrics here
G|--------------------------------------------------------
D|--------------------------------------------------------
A|--7--7--3--3--5--5--2--1--0--7--7--3--3--5--5--0--1--2--
E|-------------------------------------------------------- x2

G|--------------------------
D|--------------------------
A|--7--7--3--3--5--5--2--2--
E|-------------------------- x3

G|--------------------------------------------------------
D|--------------------------------------------------------
A|--7--7--3--3--5--5--2--1--0--7--7--3--3--5--5--0--1--2--
E|-------------------------------------------------------- x2


Paste any tab in acousterr's tab maker and we'll play it !!!
Now supports capo and sound effects for vibrato/pull-off/hammer/bends/mutes etc !!! Checkout help section
tabs and chords, guitar tabs, music transcription, music technology, deep learning, music information retrieval, transcribe into tabs & chords, chordify, music renditions, songsterr, reverbnation, tabulature, bollywood chords, ultimate guitar, yousician, guitar lessons, acoustic guitar, electric guitar, guitar tuner, 911 tabs