Guitar Tabs for Mysticism: Guitar

Tabs for Mysticism : 
E|-----------------------------------------
B|-----------------------------------------
G|-----------------------------------------
D|--2--2--2--------------------5--4--0--2--
A|-----------3-----3--5--5--5--------------
E|----------------------------------------- x6

E|-----------
B|-----------
G|-----------
D|--5--4--0--
A|-----------
E|----------- x4

E|-----------------------------------------
B|-----------------------------------------
G|-----------------------------------------
D|--2--2--2--------------------5--4--0--2--
A|-----------3-----3--5--5--5--------------
E|----------------------------------------- x4

E|-----------
B|-----------
G|-----------
D|--5--4--0--
A|-----------
E|----------- x4

E|-----------------------------------------
B|-----------------------------------------
G|-----------------------------------------
D|--2--2--2--------------------5--4--0--2--
A|-----------3-----3--5--5--5--------------
E|----------------------------------------- x4

E|-----------
B|-----------
G|-----------
D|--5--4--0--
A|-----------
E|----------- x4

E|-----------
B|-----------
G|-----------
D|-----------
A|--4--5--7--
E|----------- x4





tabs and chords, guitar tabs, music transcription, music technology, deep learning, music information retrieval, transcribe into tabs & chords, chordify, music renditions, songsterr, reverbnation, tabulature, bollywood chords, ultimate guitar, yousician, guitar lessons, acoustic guitar, electric guitar, guitar tuner, 911 tabs