Bass Tabs for Mr. Sleepless - Lemonsweet Bass Tab

(/) Slide Up  (\) Slide Down  (h) Hammer On  (p) Pull Off  (b) Bend (r) Release (v) Vibrato (x) Muted

Tabs for Song : Mr. Sleepless

Strophe 1
G|-----------------------------------------------
D|-----------------------------------------------
A|--6-----6--------------------9-----9-----------
E|-----------4-----4--7-----7-----------6-----6--

Pre-Chorus
G|-----------------------------------------------------------------11-------------
D|--------------------------------------------------------------------------8-----
A|--6--6--6--------------------------------------------------16\9-----9-----------
E|--------------16\4--4--4--4--4--4--4--4--4-----7--7--7-----------------6-----6--

Chorus (vereinfacht: Oktaven weglassen)
G|-----------8-----8-----8-----------------------------------------------------------------------------
D|-----------------------------------9-----9-----9-----------4-----4-----4-----------8-----8-----8-----
A|-----6--6-----6-----6-----6--------------------------------------------------------------------------
E|-----------------------------7--7-----7-----7-----7--2--2-----2-----2-----2--6--6-----6-----6-----6--

Verse 2:
G|--------------8--------8-----------------------------------------------11-------------
D|---------6h8--------8--------------6--------6-----------9--------9--------11----8-----
A|-----6-----------6------------4h6--------6---------7h9--------9-----9--------------8--
E|--------------------------4-----------4--------7-----------7-----------------6--------

Pre-Chorus 2x

Chorus

Bridge 1.
G|--------------------------
D|--------------------------
A|-----6-----9--------------
E|-----------------9-----7--
2.
G|--------------------------------------------------------
D|--------------------------------------------------------
A|------1/6--6--6--6--6--6--6--6--6--6--6--6--6--6--6--6--
E|--------------------------------------------------------

Refrain

tabs and chords, guitar tabs, music transcription, music technology, deep learning, music information retrieval, transcribe into tabs & chords, chordify, music renditions, songsterr, reverbnation, tabulature, bollywood chords, ultimate guitar, yousician, guitar lessons, acoustic guitar, electric guitar, guitar tuner, 911 tabs