Guitar Tabs for Miya <3

(/) Slide Up  (\) Slide Down  (h) Hammer On  (p) Pull Off  (b) Bend (r) Release (v) Vibrato (x) Muted

Tabs for Song : 
BPM : 200


E|--------------------------------x---------------------------------------------x----------------------------------------x--
B|-----------1--1--0--0-----------x-----------------3--3---3/5---5\3-----3------x----------------3--3--1--0--------------x--
G|--------0-----------------2-----x-----------0--------------------------2------x-------------0-----------------2--------x-- 
D|--------------------------------x--------------------------------------0------x----------------------------------------x--
A|-----3--------------------------x---------------------------------------------x-------3--------------------------------x--
E|--------------------------------x--------3------------------------------------x----------------------------------------x--

E|----------------------------------x----------------------------x-----------------------------------x----------------------
B|-----------3--3---3/5---5\3--3----x------3--3--3--0---0h3------x-------------3--3--0--0------------x----------------------
G|--------2--------------------0----x------0---------------------x----------0---------------0h2------x----------------------
D|-----0----------------------------x----------------------------x-----------------------------------x----------------------
A|----------------------------------x------3---------------------x-----------------------------------x----------------------
E|-----------------------------3----x----------------------------x-------3---------------------------x----------------------


E|-------------x-----x------------x----------x------x-----------1-----------------------------------------------------------
B|-----------3-x---1-x----0h-1p0--x--------3-x---0--x-----------1-----------------------------------------------------------
G|-----------0-x---0-x------------x--------0-x---0--x---0h-2p0--2-(--n--e--c--k -b--e--n--d--)----------(repeat twice)------
D|-------------x-----x------------x----------x------x-----------3-----------------------------------------------------------
A|-----3-------x---3-x----0-------x----------x------x-----------3-----------------------------------------------------------
E|-------------x-----x------------x-----3----x---3--x---3-------1-----------------------------------------------------------


E|-----------------0--------------------------------------2v----------------------------------------------------------------
B|--1-----------1--------0---------0h-1p0--1---------1p0--3v----------------------------------------------------------------
G|--0--------------------0-----------------2--------------2v----------------------------------------------------------------
D|--------------------------------------------------------0v----------------------------------------------------------------
A|--3--------3--------------------------------------------------------------------------------------------------------------
E|-----------------------3-----3-----------1-----1--------------------------------------------------------------------------


E|---------------------------------------------------------------------------------------------x-----------------x----------
B|-----------1--1--0--0--------3-----------3--3--0--0--------3-----------3--3---3/5---5\3--3---x----------1------x----------
G|--------0-----------------2--0--------0-----------------2--2--------2--------------------0---x-------0---------x----------
D|-----------------------------------------------------------0-----0---------------------------x-----------------x----------
A|-----3---------------------------------------------------------------------------------------x----3------------x----------
E|-----------------------------3-----3-----------------------------------------------------3---x-----------------x----------

E|-----------------x-----------------x-------x-----x----------x---x-----x----------x-----------------------------x--------x-
B|--------------3--x-----------3-----x-----3-x---1-x-3--------x-3-x---3-x-0h1------x----------1--1---1h-3p1--3---x--------x-
G|-----------2-----x--------0--------x-----0-x---0-x-0h2------x-2-x---0-x-0--------x-------0-----------------0---x----2---x-
D|--------0--------x-----------------x-------x-----x-0--------x-0-x-----x----------x-----------------------------x----0---x-
A|-----------------x-----------------x-------x---3-x----------x---x-----x-3--------x----3------------------------x--------x-
E|-----------------x-----3-----------x-----3-x-----x----------x---x---3-x----------x-------------------------3---x--------x-
                                              harm.
E|--------------------------------x-----------(12--)------------------------------------------------------------------------
B|-----------3--3---0h-3p0--1-----x-----0-----(12--)------------------------------------------------------------------------
G|--------2-----------------0-----x-----------(12--)-(n--e--c--k -b--e--n--d--)-----(--s--t--r--u--m--)---------------------
D|-----0--------------------------x-----------(12--)------------------------------------------------------------------------
A|--------------------------3-----x-----3-----(12--)------------------------------------------------------------------------
E|--------------------------------x-----------(12--)------------------------------------------------------------------------

E|-----------------------0---------------------------------------0h3--------------0-----------------------------------------
B|--------------0--3---------------------0h3--------------------------3-----1-----1-----------------------------------------
G|---------0h2-----------------------0---------2/4-----------0--------0-----------0-----------------------------------------
D|--------------------------------------------------------------------------------2-----------------------------------------
A|-----3-----------3-----3--------------------------------3-----------------------3-----------------------------------------
E|--------------------------------3-----------------------------------------------x-----------------------------------------


tabs and chords, guitar tabs, music transcription, music technology, deep learning, music information retrieval, transcribe into tabs & chords, chordify, music renditions, songsterr, reverbnation, tabulature, bollywood chords, ultimate guitar, yousician, guitar lessons, acoustic guitar, electric guitar, guitar tuner, 911 tabs