Guitar Tabs for Ooft

(/) Slide Up  (\) Slide Down  (h) Hammer On  (p) Pull Off  (b) Bend (r) Release (v) Vibrato (x) Muted

Tabs & Chords
BPM : 110.0
Check Track 2 for Chord Positions 

          C#                   G#m                  E                 B                    F# 
E|--------------------------------------------------------------------------------------------
B|--------0--------------------------------------------------16----------------16-16----------
G|-----------------------18----18----------------------------------16-------------------18----
D|--------------18-19-18----------18----------------18----------------18-------------------18-
A|--16----------------------------------18-16-16----------------------------------------------
E|-----------------------------------------------------7--------------------7-----------------

                         G#m                        E                       B                 
E|--------------------------------------------------------------------------------------------
B|--16-------------------------------------------------------------------0-----------------16-
G|-----18----18----16-------------------------------------------------------------------18----
D|-----------------------18----18-18----------------18----18----------------18----18----------
A|--------------------------------------16-18-16----------------17----16----------------------
E|--------------------------------------------------------------------------------------------

          F#       E                                C# 
E|-----------------------------------------16----------
B|-----------------------------------------------------
G|--18----18-18-------------------------------------16-
D|-----------------18----18----18-------------18-------
A|-----------------------------------------------------
E|--------------------------------7--------------------

Guitar Tabs for Ooft






          C#                   G#m                  E                 B                    F# 
E|--------4--------------------4--------------------0-----------------2--------------------2--
B|--------6--------------------4--------------------0-----------------4--------------------2--
G|--------6--------------------4--------------------1-----------------4--------------------3--
D|--------6--------------------6--------------------2-----------------4--------------------4--
A|--------4--------------------6--------------------2-----------------2--------------------4--
E|-----------------------------4--------------------0--------------------------------------2--

                         G#m                        E                       B                 
E|-----------------------4--------------------------0-----------------------2-----------------
B|-----------------------4--------------------------0-----------------------4-----------------
G|-----------------------4--------------------------1-----------------------4-----------------
D|-----------------------6--------------------------2-----------------------4-----------------
A|-----------------------6--------------------------2-----------------------2-----------------
E|-----------------------4--------------------------0-----------------------------------------

          F#       E                                C# 
E|--------2--------0--------------------------------4--
B|--------2--------0--------------------------------6--
G|--------3--------1--------------------------------6--
D|--------4--------2--------------------------------6--
A|--------4--------2--------------------------------4--
E|--------2--------0-----------------------------------

tabs and chords, guitar tabs, music transcription, music technology, deep learning, music information retrieval, transcribe into tabs & chords, chordify, music renditions, songsterr, reverbnation, tabulature, bollywood chords, ultimate guitar, yousician, guitar lessons, acoustic guitar, electric guitar, guitar tuner, 911 tabs