Bass Tabs for Meteor

(/) Slide Up  (\) Slide Down  (h) Hammer On  (p) Pull Off  (b) Bend (r) Release (v) Vibrato (x) Muted

Tabs for Song : 
BPM : 101
Intro ~~~~~
G|---------------------------------------------------------------------------------------------------------------
D|--------------------2-----------------------------------2-----------------2-----------------------------------
A|--------------0--------2--0--------------------0--2--3--------------0--------2--0--------------------0--2--3--
E|--0-----3--------------------0-----3-----1--------------------3--------------------0-----3-----1--------------
B|--------------------------------------------------------------------------------------------------------------
Meteor, in the Sky, I saw it tonight, I was feelin' fine
G|---------------------------------------------------------------------------------------------------------------
D|--2-----------------2-----------------------------------------------------2-----------------------------------
A|--------------0--------0--0--------------------0--2--3--------------0--------2--0--------------------0--2--3--
E|--------3--------------------0-----3-----1--------------0-----3--------------------0-----3-----1--------------
B|--------------------------------------------------------------------------------------------------------------
VERSE:
Now I'm standing here, thinking, what else is there to fear?
G|-----------------------------------------------------------------------------
D|-----------2--------------------------------------2--------------------------
A|--------2--------------------7-----------------2-----------------------------
E|--0--0--------3--3--5--3--5-----5--3--2--0--0--------3--3--5--3--1--0--1--1--
B|-----------------------------------------------------------------------------
Fear.... Me!!!
G|-----------------------------------------------------------------------------
D|-----------2--------------------------------------2--------------------------
A|--------2--------------------7-----------------2-----------------------------
E|--0--0--------3--3--5--3--5-----5--3--2--0--0--------3--3--5--3--1--0--1--1--
B|-----------------------------------------------------------------------------
CHORUS:
On Westheimer and Voss, is where I got lost, but now I am found, six feet under ground...
G|--------------------------------------------------------------------------
D|-----------------------------7--5--4--------------------------------------
A|-----------------------------------------------------------------0--2--3--
E|--0--0--0--0--3--3--0--0--5-----------0--0--0--0--3--3--0--0--1-----------
B|--------------------------------------------------------------------------
You wouldn't understand, so just take my hand and tell me, where do y'all think I'm gonna land?
G|--------------------------------------------------------------------------
D|-----------------------------7--5--4--------------------------------------
A|-----------------------------------------------------------------0--2--3--
E|--0--0--0--0--3--3--0--0--5-----------0--0--0--0--3--3--0--0--1-----------
B|--------------------------------------------------------------------------
POST CHORUS -LAAAAAAAAAAAND
G|--------------------------------------------------------------------------------------------------------------
D|--------------------------------------------------------------5-----------5-----5--------5-----------5-----5--
A|--------------------------------------------------------------------------------------------------------------
E|--0--0--0--0--0--0--0--0--0--0--0--0--0--0--0--0--0--0--3--3-----3--3--3-----3-----3--3-----3--3--3-----3-----
B|--------------------------------------------------------------------------------------------------------------
Won't you land, unto me?
G|--------------------------------------------------------------------------------------------------------------
D|-----------------------------------------------------------------------------9--9-----7--7-----5--5-----4--4--
A|--------------------------------------------------------------------------------------------------------------
E|--5--5--0--5-----5--5--0--5--5--0--5-----5--5--0--7--7--7--7--7--7--7--7--7-----------------------------------
B|--------------------------------------------------------------------------------------------------------------
Both Solos
G|--------------------------------------------------------------------------------------------------
D|--------------------------------------------------------------------------------------------------
A|--------------------------------------------------------------------------------------------------
E|--0--0-----0--3--3-----3--5--5-----5-----5-----5--0--0-----0--3--3-----3--1--1-----1-----1-----1--
B|--------------------------------------------------------------------------------------------------

Use manual mode to free up cursor. Paste any tab in acousterr tab maker and we'll play it !!!
tabs and chords, guitar tabs, music transcription, music technology, deep learning, music information retrieval, transcribe into tabs & chords, chordify, music renditions, songsterr, reverbnation, tabulature, bollywood chords, ultimate guitar, yousician, guitar lessons, acoustic guitar, electric guitar, guitar tuner, 911 tabs