Bass Tabs for Mercado Testavcio

(/) Slide Up  (\) Slide Down  (h) Hammer On  (p) Pull Off  (b) Bend (r) Release (v) Vibrato (x) M-----
ยก


Song lyrics here
G|--------------------------x-----------x-----------x--------------------------x--------------x--------------------
D|-----5--5--5-----5--5--5--x-----------x-----------x-----5--5--5-----5--5--5--x--------------x--------------------
A|--------------------------x--5--5--5--x--5--5--5--x--------------------------x--5--5--5--5--x--5--5--6--6--7--7--
E|--3-----------3-----------x-----------x-----------x--3-----------3-----------x--------------x--------------------

Song lyrics here
G|-----------------------------x--------------------------------------------x-----------------------------x--------------------------------------------------x--
D|-----------------------------x--------------------------------------------x-----------------------------x--------------------------------------------------x--
A|--7--7--7--7-----7--7--7--7--x--2-----2-----2-----2-----2-----2-----2-----x--7--7--7--7-----7--7--7--7--x--2-----2-----2-----2-----2-----2-----2-----2-----x--
E|--------------7--------------x-----2-----2-----2-----2-----2-----2-----2--x--------------7--------------x-----2-----2-----2-----2-----2-----2-----2-----2--x--

Paste any tab in acousterr's tab maker and we'll play it !!!
Now supports capo and sound effects for vibrato/pull-off/hammer/bends/mutes etc !!! Checkout help section
tabs and chords, guitar tabs, music transcription, music technology, deep learning, music information retrieval, transcribe into tabs & chords, chordify, music renditions, songsterr, reverbnation, tabulature, bollywood chords, ultimate guitar, yousician, guitar lessons, acoustic guitar, electric guitar, guitar tuner, 911 tabs