Guitar Tabs for Marxando

(/) Slide Up  (\) Slide Down  (h) Hammer On  (p) Pull Off  (b) Bend (r) Release (v) Vibrato (x) Muted

Tabs for Song : 

Song lyrics here
-

Song lyrics here


E|-----------------------------------------------------------------------------------------
B|-----------------------------------------------------------------------------------------
G|-----------------------------------------------------------------------------------------
D|--6--6--------------6--6--------------6--6-----4--------------------------6--6-----------
A|-----------7--4--------------7--4-----------------7-----6--4-----------------------7--4--
E|-----------------------------------------------------------------------------------------

E|--------------------------------------------------------------------------------------------
B|--------------------------------------------------------------------------------------------
G|--------------------------------------------------------------------------------------------
D|-----6--6--------------6--6-----4-----------6--------------------------------------6-----6--
A|--------------7--4-----------------7-----6-----------6--7--4-----6--7--4-----6--7-----------
E|--------------------------------------------------------------------------------------------


E|--------------------------------------------------------------------------------------
B|--------------------------------------------------------------------------------------
G|--------------------------6-----4-----------------------------------------------------
D|--------4--6--7-----7--7-----------7--6--------6--6--4-----4--6--7-----6--4--6--------
A|-----------------------------------------------------------------------------------4--
E|--------------------------------------------------------------------------------------

E|--------------------------------------------------------------------------------------
B|--------------------------------------------------------------------------------------
G|-----------------------------------------------------6-----6--6--6-----4-----6--------
D|--------------------------4-----------------------------------------------7--------6--
A|--------7--7--6-----6--7--------7--6--4--------4--4-----------------------------------
E|--------------------------------------------------------------------------------------

E|-----------------------------------------------------------------------------------------
B|-----------------------------------------------------------------------------------------
G|--------------6-----6--6--6-----5--6--8--------------------------------------------------
D|--------------------------------------------6--7--6--4--------------------------------4--
A|--------4--4--------------------------------------------7--6--4-----6--7--4-----6--7-----
E|-----------------------------------------------------------------------------------------

E|-----------------------------v--------------------------------------------------------------------
B|--------------------------------------------------------------------------------------------------
G|-----------------------------------------------------------------6-----6--6--6-----4-----6--------
D|--------4--7-----6--4--------------4--------------------------------------------------7--------6--
A|-----7-----------------7-----6--7--------7--6--4--------4--4--------------------------------------
E|--------------------------------------------------------------------------------------------------

E|--------------------------------------------------------------------------------
B|--------------------------------------------------------------------------------
G|--------------6-----6--6--6-----5--6--8-----------------------------------------
D|--------------------------------------------6--7--6--4--------------------------
A|--------4--4--------------------------------------------7--6--4-----6--7--4-----
E|--------------------------------------------------------------------------------

E|------------------------------------------------------------
B|-----------------------------------------------------------
G|-----------------------------------------------------------
D|--------4--------4--7-----6--4--------------4--------------
A|--6--7--------7-----------------7-----6--7--------7--6--4--
E|-----------------------------------------------------------







Paste any tab in acousterr's tab maker and we'll play it !!!
Now supports capo and sound effects for vibrato/pull-off/hammer/bends/mutes etc !!! Checkout help section
tabs and chords, guitar tabs, music transcription, music technology, deep learning, music information retrieval, transcribe into tabs & chords, chordify, music renditions, songsterr, reverbnation, tabulature, bollywood chords, ultimate guitar, yousician, guitar lessons, acoustic guitar, electric guitar, guitar tuner, 911 tabs