Guitar Tabs for Martwe Morze

(/) Slide Up  (\) Slide Down  (h) Hammer On  (p) Pull Off  (b) Bend (r) Release (v) Vibrato (x) Muted

Tabs for Song : 
BPM : 200

Song lyrics here 
E|--------0--3--2----------|0-----0-----------0--2-|3-----3-----2----------|-----------------------|
B|-----0--------3-----3----|0-----------3----------|0-----------------3----|0-----3-----1-----0----|
G|--------------2----------|0-----------2----------|------------2----------|---0-----0-----2-----2-|
D|-----------2-----2-----2-|---2-----2--4--2-------|---2-----2-----4-----4-|-----------------------|
A|-------------------------|-----------------------|-----------------------|------------0----------|
E|--0-----------0----------|0----------------------|0-----------2----------|3----------------------|

E|-----0--------0----------|------------0-------------------|---------0----------|
B|--0-----------0--------4-|------------0--------3----------|0-------------------|
G|--0-----------2----------|------------0--------2----------|--------------------|
D|-------------------------|---2-----2-----2-----4--2-----2-|---2--2-----2--2--2-|
A|--2-----2-----2----------|--------------------------------|--------------------|
E|-------------------------|0-------------------------------|--------------------|

E|--------0-----------3----|------2-----------0----|------0-----------3-------|------2----------------|
B|--------0-----------3----|---0--4--0--------0----|------0-----------3-------|------3-----------3----|
G|--------0--------0--4--0-|------------------0----|------0--------0--4--0----|------2-----------2--0-|
D|-----2-----2-------------|---------------2-----2-|---2----------------------|---0-----0-----0-------|
A|-------------------------|2----------------------|---------2----------------|------------0----------|
E|--0-----------3----------|------------0----------|0-----------3-------------|-----------------------|

E|--------0-----------3----|------2-----------0----|------0----------------|------0--0-------------|
B|--------0-----------3----|---0--4--0--------0----|------0-----------3----|------0--0-----3-------|
G|--------0--2-----0--4--0-|------------------0----|------0-----------2----|------0--0-----2-------|
D|-----2-------------------|---------------2-----2-|---2-----2-----2--4--2-|---2--------2--4--2----|
A|-------------------------|2----------------------|-----------------------|---------------------2-|
E|--0-----------3----------|------------0----------|0-----------0----------|0----------------------|

E|--------0-----------3----|------2-----------0----|------0-----------3----|---2----------------|
B|--------0-----------3----|---0--4--0--------0----|------0-----------3----|---3-----------3----|
G|--------0--------0--4--0-|------------------0----|------0--------0--4--0-|---2-----------2----|
D|-----2-----2-------------|---------------2-----2-|---2-------------------|0-----0-----0-----0-|
A|-------------------------|2----------------------|---------2-------------|---------0----------|
E|--0-----------3----------|------------0----------|0-----------3----------|--------------------|

E|--------0-----------3----|------2-----------0----|------0----------------|------0--0-------------|
B|--------0-----------3----|---0--4--0--------0----|------0-----------3----|------0--0-----3-------|
G|--------0--------0--4--0-|------------------0----|------0-----------2----|------0--0-----2-------|
D|-----2-----2-------------|---------------2-----2-|---2-----2-----2--4--2-|---2--------2--4--2----|
A|-------------------------|2----------------------|-----------------------|---------------------2-|
E|--0-----------3----------|------------0----------|0-----------0----------|0----------------------|

E|--------5-----------3----|---2-----3--2-------|------5-----------3----|---2-----2-----2----|
B|--------5-----------3----|---3-----3--3-------|------5-----------3----|---3-----3-----3----|
G|-----2--5--2-----0--4--0-|---2-----2--2-----2-|---2--5--2-----0--4--0-|---2-----2-----2----|
D|-------------------------|0-----0--------0----|-----------------------|0-----0-----0-----0-|
A|--0----------------------|--------------------|0----------------------|--------------------|
E|--------------3----------|--------------------|------------3----------|--------------------|

E|--------0-----------3----|------2-----------0----|------0----------------|------0--0-------------|
B|--------0-----------3----|---0--4--0--------0----|------0-----------3----|------0--0-----3-------|
G|--------0--------0--4--0-|------------------0----|------0-----------2----|------0--0-----2-------|
D|-----------2-------------|---------------2-----2-|---2-----2--0-----4--0-|---2--------2--4-----2-|
A|-----2-------------------|2----------------------|-----------------------|------------------2----|
E|--0-----------3----------|------------0----------|0----------------------|0----------------------|

E|-------------------------|------0-----------3----|------2-----------0----|------0-----------3----|
B|--------0--0-------------|------0-----------3----|---0--4--0--------0----|------0-----------3----|
G|--------0--0-----2-------|------0--------0--4--0-|------------------0----|------0--------0--4--0-|
D|-----2--------2--4-----2-|---2-----2-------------|---------------2-----2-|---2-------------------|
A|--------------------2----|-----------------------|2----------------------|---------2-------------|
E|--0----------------------|0-----------3----------|------------0----------|0-----------3----------|

E|-----2----------------|------0-----------3----|------2-----------0----|------0----------------|
B|-----3-----------3----|------0-----------3----|---0--4--0--------0----|------0-----------3----|
G|-----2-----------2----|------0--------0--4--0-|------------------0----|------0-----------2----|
D|--0-----0-----0-----0-|---2-----2-------------|---------------2-----2-|---2-----2-----2--4--2-|
A|-----------0----------|-----------------------|2----------------------|-----------------------|
E|----------------------|0-----------3----------|------------0----------|0-----------0----------|

E|--------0--0-------------|------5-----------3----|---2-----3-----2-------|------5--------------3----|
B|--------0--0-----3-------|------5-----------3----|---3-----3-----3-------|------5--------------3----|
G|--------0--0-----2-------|---2--5--2-----0--4--0-|---2-----2-----2-----2-|---2--5--2--------0--4--0-|
D|-----2--------2--4--2----|-----------------------|0-----0-----------0----|--------------------------|
A|-----------------------2-|0----------------------|-----------------------|0-------------------------|
E|--0----------------------|------------3----------|-----------------------|---------------3----------|

E|--------2-----2-----2----|------0-----------3----|------2-----------0----|------0----------------|
B|--------3-----3-----3----|------0-----------3----|---0--4--0--------0----|------0-----------3----|
G|--------2-----2-----2----|------0--------0--4--0-|------------------0----|------0-----------2----|
D|--0--------0-----0-----0-|---------2-------------|---------------2-----2-|---2-----2--0-----4--0-|
A|-------------------------|---2-------------------|2----------------------|-----------------------|
E|-------------------------|0-----------3----------|------------0----------|0----------------------|

E|--------0--0-------------|--------------------------|---------0-------------------|--------------------------------|
B|--------0--0-----3-------|------0-----0-------------|---------0-----------3-------|------3-----------------1-------|
G|--------0--0-----2-------|------0-----0-----2-------|---------0-----------2-------|---0--4--0--------2-----2--2----|
D|-----2--------2--4-----2-|---2-----------2--4-----2-|------------2-----4-----4----|--------------------------------|
A|--------------------2----|---------------------2----|------2----------------------|---------------0----------------|
E|--0----------------------|0-------------------------|0--------------2-------------|3-------------------------------|

E|-----------0--------0-------------|0-----------------0----------------|------0-------------------|
B|-----------0--------0-----4-------|0--------------0--------3----------|------0-----------3-------|
G|-----0--------0-----0-----2-------|5-----------------0-----2----------|------0-----------2-------|
D|-----7--------------------4-------|5-----2-----2--------2--4-----2----|---------2-----4-----4----|
A|--2-----------2--------2--------2-|---------------------------2-----2-|---2----------------------|
E|----------------------------------|0----------------------------------|0-----------2-------------|

E|----------------------------------|---------0--------0-------------|0-----------------0-------------------|
B|--------3-----------------1-------|---------0--------0-----4-------|0--------------0--------3-------------|
G|-----0--4--0--------2-----2--2----|---0--------0-----0-----2-------|5-----------------0-----2-------------|
D|----------------------------------|---7--------------------4-------|5-----2-----2--------2--4--------2----|
A|-----------------0----------------|2-----------2--------2--------2-|------------------------------2-----2-|
E|--3-------------------------------|--------------------------------|0-------------------------------------|

E|--------0----------------|-----------------------|------0----------------|-----------------------|
B|--------0----------------|------0-----------3----|------0----------------|------0-----------3----|
G|--------0-----------2----|------0-----------2----|------0-----------2----|------0-----------2----|
D|-----2-----2-----2--4--2-|---2-----2-----2--4----|---2-----2-----2--4--2-|---2-----2--------4--2-|
A|-------------------------|---------------------2-|-----------------------|------------2----------|
E|--0-----------0----------|0-----------0----------|0-----------0----------|0--------------0-------|

E|--------0----------------|-----------------------|------0----------------|-----------------------|
B|--------0----------------|------0-----------3----|------0----------------|------0-----------3----|
G|--------0-----------2----|------0-----------2----|------0-----------2----|------0-----------2----|
D|-----2-----2-----2--4--2-|---2-----2-----2--4----|---2-----2-----2--4--2-|---2-----2--------4--2-|
A|-------------------------|---------------------2-|-----------------------|------------2----------|
E|--0-----------0----------|0-----------0----------|0-----------0----------|0--------------0-------|

E|--------0-----------3----|------2-----------0----|------0-----------3-------|------2----------------|
B|--------0-----------3----|---0--4--0--------0----|------0-----------3-------|------3-----------3----|
G|--------0--------0--4--0-|------------------0----|------0--------0--4--0----|------2-----------2----|
D|-----2-----2-------------|---------------2-----2-|---2----------------------|---0-----0-----0-----0-|
A|-------------------------|2----------------------|---------2----------------|------------0----------|
E|--0-----------3----------|------------0----------|0-----------3-------------|-----------------------|

E|--------0-----------3----|------2-----------0----|------0----------------|------0-----0-------------|
B|--------0-----------3----|---0--4--0--------0----|------0-----------3----|------0-----0-----3-------|
G|--------0--------0--4--0-|------------------0----|------0-----------2----|------0-----0-----2-------|
D|-----2-----2-------------|---------------2-----2-|---2-----2-----2--4--2-|---2-----------2--4--2----|
A|-------------------------|2----------------------|-----------------------|------------------------2-|
E|--0-----------3----------|------------0----------|0-----------0----------|0-------------------------|

E|--------5--------------3-------|------2-----3-----2-------|------5--------------3-------|------2-----2--------2----|
B|--------5--------------3-------|------3-----3-----3-------|------5--------------3-------|------3-----3--------3----|
G|-----2--5--2--------0--4--0----|------2-----2-----2-----2-|---2--5--2--------0--4--0----|------2-----2--------2----|
D|-------------------------------|0--------0-----------0----|-----------------------------|0--------0--------0-----0-|
A|--0----------------------------|--------------------------|0----------------------------|--------------------------|
E|-----------------3-------------|--------------------------|---------------3-------------|--------------------------|

E|--------0-----------3----|------2-----------0-------|------0----------------|------0-----0-------------------|
B|--------0-----------3----|---0--4--0--------0-------|------0-----------3----|------0-----0--------3----------|
G|--------0--------0--4--0-|------------------0-------|------0-----------2----|------0-----0--------2----------|
D|-----------2-------------|---------------2-----2----|---2-----2--0-----4--0-|---2--------------2--4-----2----|
A|-----2-------------------|2-------------------------|-----------------------|------------------------2-------|
E|--0-----------3----------|------------0-------------|0----------------------|0-------------------------------|

E|--------0-------------------|--------------------------------|---------0--------0-------|0-----------------0----------------|
B|--------0-----------3-------|------3-----------------1-------|---------0--------0-------|0--------------0--------3----------|
G|--------0-----------2-------|---0--4--0--------2-----2--2----|---0--------0-----0-------|5-----------------0-----2-----2----|
D|-----------2-----4-----4----|--------------------------------|---7----------------------|5-----2-----2--------2--4--2-----2-|
A|-----2----------------------|---------------0----------------|2-----------2-----------2-|-----------------------------------|
E|--0-----------2-------------|3-------------------------------|--------------------------|0----------------------------------|

E|--------0-------------------|--------------------------------|---------0--------0-------------|0-----------------0----------------|
B|--------0-----------3-------|------3-----------------1-------|---------0--------0-----4-------|0--------------0--------3----------|
G|--------0-----------2-------|---0--4--0--------2-----2--2----|---0--------0-----0-----2-------|5-----------------0-----2----------|
D|-----------2-----4-----4----|--------------------------------|---7--------------------4-------|5-----2-----2--------2--4-----2----|
A|-----2----------------------|---------------0----------------|2-----------2--------2--------2-|---------------------------2-----2-|
E|--0-----------2-------------|3-------------------------------|--------------------------------|0----------------------------------|

E|--------0-------------------|--------------------------------|---------0--------0-------------|0-----------------0-------------------|
B|--------0-----------3-------|------3-----------------1-------|---------0--------0-----4-------|0--------------0--------3-------------|
G|--------0-----------2-------|---0--4--0--------2-----2--2----|---0--------0-----0-----2-------|5-----------------0-----2-------------|
D|-----------2-----4-----4----|--------------------------------|---7--------------------4-------|5-----2-----2--------2--4--------2----|
A|-----2----------------------|---------------0----------------|2-----------2--------2--------2-|------------------------------2-----2-|
E|--0-----------2-------------|3-------------------------------|--------------------------------|0-------------------------------------|

E|-----------------------------0-------------------------|
B|-----------------------------0-------------------------|
G|-----------------------------0-------------------------|
D|-----------------------------------------2-------------|
A|--------------2----------------------------------------|
E|--0----------------------------------------------------|


Song lyrics here 
E|--
B|--
G|--
D|--
A|--
E|--

Use manual mode to free up cursor. Paste any tab in acousterr tab maker and we'll play it !!!
tabs and chords, guitar tabs, music transcription, music technology, deep learning, music information retrieval, transcribe into tabs & chords, chordify, music renditions, songsterr, reverbnation, tabulature, bollywood chords, ultimate guitar, yousician, guitar lessons, acoustic guitar, electric guitar, guitar tuner, 911 tabs