Guitar Tabs for Martinssongthathemade

(/) Slide Up  (\) Slide Down  (h) Hammer On  (p) Pull Off  (b) Bend (r) Release (v) Vibrato

Tabs for Song : 

Song lyrics here
E|-----------------------------------------------------------------------------------------------------
B|--5-----------5--------5--------5-----------3-----------3--------3--------3-----------1-----------1--
G|-----------7--------7--------7--------7--------------5--------5--------5--------5--------------3-----
D|--------6--------6--------6--------6--------------4--------4--------4--------4--------------2--------
A|--7-----------------------------------------5-----------------------------------------3--------------
E|-----------------------------------------------------------------------------------------------------

E|--------------------------------------------------4--------------2--------------7--------------9-----
B|--------1--------1-----------3-----------------5--------------3--------------8--------------10-------
G|-----3--------3--------3-----5--------------4--------------2--------------7--------------9-----------
D|--2--------2--------2--------4-----------------------------------------------------------------------
A|-----------------------------5----------------------x--------------x--------------x--------------x---
E|-----------------------------------------0----------x---0----------x---0----------x---0----------x---

E|-----------4--------------2--------------9--------------12----
B|--------5--------------3--------------10-------------13-------
G|-----4--------------2--------------9--------------12----------
D|--------------------------------------------------------------
A|-------------x--------------x--------------x--------------x---
E|--0----------x---0----------x---0----------x---0----------x---

Song lyrics here

Add more lines by placing cursor below and adding notes
tabs and chords, guitar tabs, music transcription, music technology, deep learning, music information retrieval, transcribe into tabs & chords, chordify, music renditions, songsterr, reverbnation, tabulature, bollywood chords, ultimate guitar, yousician, guitar lessons, acoustic guitar, electric guitar, guitar tuner, 911 tabs