Guitar Tabs for Lyre

(/) Slide Up  (\) Slide Down  (h) Hammer On  (p) Pull Off  (b) Bend (r) Release (v) Vibrato (x) Muted

Tabs for Song : 
BPM : 180

Song lyrics here 

[Intro]

E|--------------------------------------------------------------------------------
B|--------------------------------------------------------------------------------
G|--------------------------------------------------------------------------------
D|--------------------------------------------------------------------------------
A|---5--5--5--X-X-X-X--/8--8--X-X--\5--5--5--X-X-X-X-/10--10--10----------3--1--0-
E|---3--3--3--X-X-X-X--/6--6--X-X--\3--3--3--X-X-X-X-/8---8---8-\5-----5----------


[Intro Cont.] 
E|--------------------------------------------------------------------------------
B|--------------------------------------------------------------------------------
G|--------------------------------------------------------------------------------
D|-------3--3--1--5--0----3--3----------------------------------------------------
A|------------------------1--1---3-3----3--3--1--5--0----------------0-5--1--3--3-
E|-------------------------------1-1---------------------3--3--1--5---------------

[Pre Verse.]
E|--------------------------------------------------------------------------------
B|--------------------------------------------------------------------------------
G|------------5-------7--------3--------5--------------------------3-3--3-3--3-3--
D|---------0------0---------0-------0------------------------------3-3--3-3--3-3--
A|------3----------------3---------------------1-1--1-1--1-1--1-1-----------------
E|---------------------------------------------1-1--1-1--1-1--1-1-----------------

[Verse. 1]
E|--------------------------------------------------------------------------------
B|--------------------------------------------------------------------------------
G|--------------------------------------------------------------------------------
D|------------------------7-8-7-4-----------------------------------------------------
A|----1-1/3-3--3/5--5-5---------
E|----1-1/3-3--3/5--5-5---------

[Solo]
E|
B|
G|
D|
A|
E|
Use manual mode to free up cursor. Paste any tab in acousterr tab maker and we'll play it !!!
tabs and chords, guitar tabs, music transcription, music technology, deep learning, music information retrieval, transcribe into tabs & chords, chordify, music renditions, songsterr, reverbnation, tabulature, bollywood chords, ultimate guitar, yousician, guitar lessons, acoustic guitar, electric guitar, guitar tuner, 911 tabs