Guitar Tabs for Lieat Theme

(/) Slide Up  (\) Slide Down  (h) Hammer On  (p) Pull Off  (b) Bend (r) Release (v) Vibrato (x) Muted

Tabs for Song : 
BPM : 120

E|--------------------------13----10----13----12-10-12----------10----------10-
B|--------------------------------3-----------------1-----13----------10-------
G|-----------------------------2-----------------0-----------------------------
D|--------------------------0-----------------------------------------3--------
A|--------------------------------------------3--------------------3-----------
E|--------------------------------------------------------------1--------------

E|-----------------------------------------
B|-----12-13-12----------------11----13----
G|-----------0-----12----12----3-----------
D|--------0-----------------3--------------
A|-----------------------1-----------------
E|-----3-----------------------------------

E|--10----10----------10----12----13----12-------13-12-
B|-----13-------10----------------------------1--------
G|--------2-----------------3--------------0-----------
D|-----2-----------------3-----------------------------
A|--0-----------------1-----------------3--------------
E|-----------------------------------------------------







tabs and chords, guitar tabs, music transcription, music technology, deep learning, music information retrieval, transcribe into tabs & chords, chordify, music renditions, songsterr, reverbnation, tabulature, bollywood chords, ultimate guitar, yousician, guitar lessons, acoustic guitar, electric guitar, guitar tuner, 911 tabs