Guitar Tabs for Sitteno (four Heavenly Knights #17)

(/) Slide Up  (\) Slide Down  (h) Hammer On  (p) Pull Off  (b) Bend (r) Release (v) Vibrato (x) Muted

Tabs for Song : 
BPM : 250

Guitar #1 (Intro)

E|--8-----6--4--3--------4-----6--------------1--3-----1--3--4--1--3--4--6--4-----3-----
B|--------------------------------6-----2--4--------4-----------------------------------
G|--------------------------------------------------------------------------------------
D|--------------------------------------------------------------------------------------
A|--------------------------------------------------------------------------------------
E|--------------------------------------------------------------------------------------

E|--8-----6--4--3--------4-----6--------------1--3-----1--3--4--6-----4--3--------------
B|--------------------------------6-----2--4--------4-----------------------6-----------
G|--------------------------------------------------------------------------5-----------
D|--------------------------------------------------------------------------6-----------
A|--------------------------------------------------------------------------------------
E|--------------------------------------------------------------------------------------

Guitar #1

E|--8-----6--4--3--------4-----6--------------1--3-----1--3--4--1--3--4--6--4-----3-----
B|--------------------------------6-----2--4--------4-----------------------------------
G|--------------------------------------------------------------------------------------
D|--------------------------------------------------------------------------------------
A|--------------------------------------------------------------------------------------
E|--------------------------------------------------------------------------------------

Guitar #2

E|--------------------------------------------------------------------------------------
B|--------------------------------------------------------------------------------------
G|--5-----3--------------1-----3--------------------------0--1-----0--1--3--1-----0-----
D|-----------6--5-----------------3-----------3--5--1--3--------3-----------------------
A|--------------------------------------4--6--------------------------------------------
E|--------------------------------------------------------------------------------------

Guitar #1

E|--8-----6--4--3--------4-----6--------------1--3-----1--3--4--6-----4--3--------------
B|--------------------------------6-----2--4--------4-----------------------6-----------
G|--------------------------------------------------------------------------------------
D|--------------------------------------------------------------------------------------
A|--------------------------------------------------------------------------------------
E|--------------------------------------------------------------------------------------

Guitar #2

E|-----------------------------------------------------------------------------
B|-----------------------------------------------------------------------------
G|--5-----3--------------1-----3--------------------------0--1--3-----1--0-----
D|-----------6--5-----------------3-----------3--5--1--3--------------------3--
A|--------------------------------------4--6-----------------------------------
E|-----------------------------------------------------------------------------

Guitar #1

E|--8--------8--6--------6-----8-----------------------------------8--6-----6-----------
B|--------9--------9--8-----------9-----8--6--6--8-----6--8-----6--------9-----9--8--6--
G|-----------------------------------------------------------5--------------------------
D|--------------------------------------------------------------------------------------
A|--------------------------------------------------------------------------------------
E|--------------------------------------------------------------------------------------

E|--------------4-----------------------8-----0-----8-----------------------------------
B|---------4h6--------8-----6--5--6-----------------------6-----------------------------
G|-----5--------------------------------------------------------------------------------
D|--------------------------------------------------------------------------------------
A|--------------------------------------------------------------------------------------
E|--------------------------------------------------------------------------------------

                               Repeat the last 2 parts

E|--4--4---3h-4h6--4--3--1--3--3--------------------------------3--4--3-----1-----------
B|-----------------------------------4--1-----6--6--6--4--4--6--------------------------
G|--------------------------------------------------------------------------------------
D|--------------------------------------------------------------------------------------
A|--------------------------------------------------------------------------------------
E|--------------------------------------------------------------------------------------

E|--4--4---3h-4h6--4--3--1--3--3--------------------------------3--4-----6-----8-----7--
B|-----------------------------------4--1-----6--6--6--4--4--6--------------------------
G|--------------------------------------------------------------------------------------
D|--------------------------------------------------------------------------------------
A|--------------------------------------------------------------------------------------
E|--------------------------------------------------------------------------------------

E|-----8--7---3h-4h6--4--3--4--1--------------------------3--------3--4-----4--3--------
B|--6-----------------------------1-----2--4--6-----4--6--------6-----------------------
G|--------------------------------------------------------------------------------------
D|--------------------------------------------------------------------------------------
A|--------------------------------------------------------------------------------------
E|--------------------------------------------------------------------------------------

E|-----8--7---3h-4h6--4--3--4--1--------------------------3-----4-----3-----------------
B|--6-----------------------------1-----2--4--6-----4--6-----------------4--6-----------
G|--------------------------------------------------------------------------------------
D|--------------------------------------------------------------------------------------
A|--------------------------------------------------------------------------------------
E|--------------------------------------------------------------------------------------

Guitar 1

E|--------8--8-----8--8-----------------8--8-----8--8-----------------8--8-----8--8--
B|--------6--6-----6--6-----------------9--9-----9--9-----------------5--5-----5--5--
G|-----------------------------------------------------------------------------------
D|-----------------------------------------------------------------------------------
A|-----------------------------------------------------------------------------------
E|-----------------------------------------------------------------------------------

Guitar 2
E|-----------------------------------------------------------------------------------
B|--------------------------2--1-----------------------------------------------------
G|--------------------------------1--------------------------------------------------
D|--3-----------------------------------------------6--8--10-------------------------
A|--3--------------------------------------------------------7-----------------------
E|-----------------------------------------------------------------------------------

Guitar 1

E|-----------------8--8-----8--0-----------------------------------------------------
B|-----------------8--8-----8--------------------------------------------------------
G|-----------------------------------------------------------------------------------
D|-----------------------------------------------------------------------------------
A|-----------------------------------------------------------------------------------
E|-----------------------------------------------------------------------------------

Guitar 2


E|-----------------------------------------------------------------------------------
B|--2--1-----------------------------1-----------------------------------------------
G|--------0--------------------1--3--------------------------------------------------
D|-----------------------------------------------------------------------------------
A|-----------------------------------------------------------------------------------
E|-----------------------------------------------------------------------------------

Guitar 1

E|--------8--8-----8--8-----------------8--8-----8--8-----------------8--8-----8--8--
B|--------6--6-----6--6-----------------9--9-----9--9-----------------5--5-----5--5--
G|-----------------------------------------------------------------------------------
D|-----------------------------------------------------------------------------------
A|-----------------------------------------------------------------------------------
E|-----------------------------------------------------------------------------------

Guitar 2
E|-----------------------------------------------------------------------------------
B|--------------------------2--1-----------------------------------------------------
G|--------------------------------1--------------------------------------------------
D|--3-----------------------------------------------6--8--10-------------------------
A|--3--------------------------------------------------------7-----------------------
E|-----------------------------------------------------------------------------------

Guitar 1

E|-----------------8--8-----8--0--------
B|-----------------8--8-----8-----------
G|--------------------------------------
D|--------------------------------------
A|--------------------------------------
E|--------------------------------------

Guitar 2


E|--------------------------------------
B|--2--1-----------------------------1--
G|--------0--------------------1--3-----
D|--------------------------------------
A|--------------------------------------
E|--------------------------------------

Guitar 1


E|-----8--7---3h-4h6--4--3--4--1--------------------------3--------3--4-----4--3--------
B|--6-----------------------------1-----2--4--6-----4--6--------6-----------------------
G|--------------------------------------------------------------------------------------
D|--------------------------------------------------------------------------------------
A|--------------------------------------------------------------------------------------
E|--------------------------------------------------------------------------------------

E|-----8--7---3h-4h6--4--3--4--1--------------------------3-----4-----3-----------------
B|--6-----------------------------1-----2--4--6-----4--6-----------------4--6-----------
G|--------------------------------------------------------------------------------------
D|--------------------------------------------------------------------------------------
A|--------------------------------------------------------------------------------------
E|--------------------------------------------------------------------------------------

E|-----8--7---3h-4h6--4--3--4--1--------------------------3--------3--4-----4--3--------
B|--6-----------------------------1-----2--4--6-----4--6--------6-----------------------
G|--------------------------------------------------------------------------------------
D|--------------------------------------------------------------------------------------
A|--------------------------------------------------------------------------------------
E|--------------------------------------------------------------------------------------

E|-----8--7---3h-4h6--4--3--4--1--------------------------3-----4-----3-----------------
B|--6-----------------------------1-----2--4--6-----4--6-----------------4--6-----------
G|--------------------------------------------------------------------------------------
D|--------------------------------------------------------------------------------------
A|--------------------------------------------------------------------------------------
E|--------------------------------------------------------------------------------------

Guitar 1

E|--8-----6--4--3--------4-----6--------------1--3-----1--3--4--6-----4--3--------------
B|--------------------------------6-----2--4--------4-----------------------6-----------
G|--------------------------------------------------------------------------5-----------
D|--------------------------------------------------------------------------6-----------
A|--------------------------------------------------------------------------------------
E|--------------------------------------------------------------------------------------

Guitar 2

E|-----------------------------------------------------------------------------
B|-----------------------------------------------------------------------------
G|--5-----3--------------1-----3--------------------------0--1--3-----1--0-----
D|-----------6--5-----------------3-----------3--5--1--3--------------------3--
A|--------------------------------------4--6-----------------------------------
E|-----------------------------------------------------------------------------
tabs and chords, guitar tabs, music transcription, music technology, deep learning, music information retrieval, transcribe into tabs & chords, chordify, music renditions, songsterr, reverbnation, tabulature, bollywood chords, ultimate guitar, yousician, guitar lessons, acoustic guitar, electric guitar, guitar tuner, 911 tabs