Bass Tabs for Lemonsweet - Panama Pickles

(/) Slide Up  (\) Slide Down  (h) Hammer On  (p) Pull Off  (b) Bend (r) Release (v) Vibrato (x) Muted

Tabs for Song : Panama Pickles

Intro
G|--------------------------------------------------------------------------------------------------------------------
D|--------------------------------------------------------------------------------------------------------------------
A|--------------------------------------------------------------------------------------------------------------------
E|--0-----3-----5-----3--0-----3--0--0-----3-----5-----3--0-----3--0--0-----3-----5-----3--0-----3--0--0-----3-----5--

Verse

G|-----------------------------------------------------
D|-----------------------------------------------------
A|-----7--7-----7--5--5-----5--5--5-----5--6--6-----6--
E|-----------------------------------------------------


Intro (Halbe länge)
Refrain 2x

G|--------------------------------------------------------------------
D|--------------------------------------------------------------------
A|--------------------5--5--5--5--5--5--------------------------------
E|--0--0--0--0--0--0--------------------5--5--5--5--5--5--5-----------

G|-----------------------------------------------------------------------
D|-----------------------------------------------------------------------
A|--------------------5--5--5--5--5--5-----------------------------------
E|--0--0--0--0--0--0--------------------5--5--5--5--5--5--3--3--5--5--3--

Verse 2: wie Verse 1 bis Break, dann (Slapped oder mit Pick)
G|--------9-----------7-----------7-----------8-----
D|--------------------------------------------------
A|--7--7-----7--5--5-----5--5--5-----5--6--6-----6--
E|--------------------------------------------------

Intro
Refrain

Bridge:
G|-----------------------------------------------------------------
D|-----------------------------------------------------------------
A|-----------5--4--------------------------5--4--------------------
E|-----0-----------5--5--5--3--3--3--0-----------5--5--5--8--8--8--

G|-----------------------------------------------------------------
D|-----------------------------------------------------------------
A|--------5--4--------------------------3--2-----------------------
E|--0-----------5--5--5--3--3--3--0-----------3--3--3--2--2--2--


Refrain (Ohne Bass)
Refrain

Bridge
tabs and chords, guitar tabs, music transcription, music technology, deep learning, music information retrieval, transcribe into tabs & chords, chordify, music renditions, songsterr, reverbnation, tabulature, bollywood chords, ultimate guitar, yousician, guitar lessons, acoustic guitar, electric guitar, guitar tuner, 911 tabs