Bass Tabs for Party Crush - Lemonsweet

(/) Slide Up  (\) Slide Down  (h) Hammer On  (p) Pull Off  (b) Bend (r) Release (v) Vibrato (x) Muted

Tabs for Song : 

Party Crush
Verse:Triplets!!!
G|-----------------------------------------------9-----------------9-----------
D|--------4-----2--4-----------4-----5--4-----9-----------4-----9-----9--------
A|-----2-----4--------------2-----4--------7-----------2-----7-----------7--9--
D|--0-----------------0-----------------------------2--------------------------

G|--------11----11----------11----11-------------------------------------------------------
D|-----12----9-----12----12----9-----12----7--------7-----7--------4-----------4-----4-----
A|-----------------------------------------------------------------------------------------
D|--9-----------------9-----------------7-----7--7-----7-----7--4-----4--4--4-----4-----4--
(vereinfacht) 
G|--------------------------------------------------------------------------
D|-----------------0-----------------5--4-----------------------------------
A|-----------------------------------------7--7--7--7--7--7--7--7--7--7--7--
D|-----0--0--0--0-----0--0--0--0--0-----------------------------------------

G|--------------------------------------------------------------------------
D|--------------------------------------------------------------------------
A|--------------------------------------------------------------------------
D|--9--9--9--9--9--9--9--9--9--9--12-11-7--7--7--7--7--7--4--4--4--4--4--4--


Chorus
G|-----------------------------0--------------------------------------------
D|--------5-----------------4-----4--------2-----------------2--------------
A|-----5-----5-----5-----5-----------5--------------2-----------------2-----
D|--5-----------5-----5-----------------2-----2--2-----2--2-----2--2-----2--

G|--------2-----------------4-----------------0-----------------0-----------
D|-----2-----2-----2-----2-----2--0--2-----2-----2-----2-----4-----4-----4--
A|--0-----------0-----0-----------------3-----------3-----5-----------5-----
D|--------------------------------------------------------------------------

vereinfacht Abwechselnd Triplets+ achtel

G|-----------------------------------------------------------------------------
D|-----------------------------------------------------------------------------
A|-----------------------------------------------------------------------------
D|-----5--5--5--5--5--5--5--5--5--5--5--5--2--2--2--2--2--2--2--2--2--2--2--2--

G|--------------------------------------------------------------------------	
D|--------------------------------------------------------------------------
A|--0--0--0--0--0--0--0--0--0--0--0--0--3--3--3--3--3--3--5--5--5--5--5--5--
D|--------------------------------------------------------------------------

Verse
Chorus
Bridge
1. 2x
G|-----------------------------------------------------------------------
D|--------7-----------------7--------------5--------5--4-----------------
A|--------------------------------------------------------5--7--7--7--7--
D|-----7-----7--7-----7--7-----7--7--6--5-----5--5-----------------------

2. Repeat
G|-----------------------------------------------------------------------------------------------------
D|--------------7--9-----------------7--9--------------5--4--5--------------------5--4--5--------------
A|--------7--9--------10-------7--9--------10-9------------------5/7--7--7------------------5/7--7--7--
D|--7--10----------------7--10-------------------5--5-----------------------5--5-----------------------
(vereinfacht) Abwechselnd Triplets+ achtel

G|--------------------------------------------------------
D|--------------------------------------------------------
A|--------------------------------------------------------
D|-----7--7--7-----7--7--7--7--6--5--5--5-----5--5--5-----

G|--------------------------------------------------------------------------
D|--------------------------------------------------------------------------
A|--------------------------------------------------------------------------
D|--7--7--7--7--7--7--7--7--7--7--7--6--5--5--5--5--5--5--5--5--5--5--5--5--


Ende Bridge:

G|--------4-----4-----4-----4-----4-----4-----
D|--------------------------------------------
A|-----2-----2-----2-----2-----2-----2-----2--
D|--------------------------------------------
Chorus
Ende (Wie 2. Bridge)


tabs and chords, guitar tabs, music transcription, music technology, deep learning, music information retrieval, transcribe into tabs & chords, chordify, music renditions, songsterr, reverbnation, tabulature, bollywood chords, ultimate guitar, yousician, guitar lessons, acoustic guitar, electric guitar, guitar tuner, 911 tabs