Bass Tabs for Crystal - Lemonsweet

(/) Slide Up  (\) Slide Down  (h) Hammer On  (p) Pull Off  (b) Bend (r) Release (v) Vibrato (x) Muted

Tabs for Song : 

Crystal

Intro
G|-----------------------------------
D|-----------------------------------
A|--5--5--6---7\0-----5--5--6---7\0--
E|-----------------------------------

Verse
1. 3x

G|--------------------------------------------------------------------------------
D|--------------------------------------------------------------------------------
A|-----------------------------------------------------------5--5--5--------------
E|--0--3--0--5--5--5--6--5--3--0--0--3--0--0--3--0--0--0--0-----------5--5--5--5--
2. 1x
G|--------------------------------------------------------------------------------
D|--------------------------------------------------------------------------------
A|-----------------------------------5-----------------------5--5--5--------------
E|--0--3--0--5--5--5--6--5--3--5--0-----0--0--3--0--0--0--0-----------5--5--5--5--

1. 2x

Pre-Chorus 
G|-----------------------------------------------------------------------------------------------------
D|-----------------------------------------------------------------------------------------------------
A|-----------------------------------------------------2--2--2--2--2--2--2--2--3--3--3--3--5--5--5--5--
E|-----3--3--3--3--3--3--3--3--2--2--2--2--2--2--2--2--------------------------------------------------

Chorus 2x
G|--------------------------0--------------------------
D|-----------2-----------0-----0-----------------------
A|--------2-----2--2--2--------------------3--3--5--5--
E|--3--3--------------------------0--0--0--------------

Intro

Verse

Pre-Chorus

Chorus (nichts spielen)

Intro

Solo (wie 1. bei Verse)

Bride (nur live!!!)G|----------------------------------------------------------------------------
D|-----------------------------------------------------------------------------------------------
A|--------------------------5--5--5--5--5--5--5--5-----------------------------------------------
E|--0--0--0--0--0--0--0--0--------------------------5--5--5--5--5--5--5--5--5--5--5--5--5--5--3--

Intro

Verse 1. Teil

Ende:

G|--------------------------------------
D|--------------------------------------
A|--------------------------5--5--6-----
E|-----0--3--0--3--0-----------------0--

tabs and chords, guitar tabs, music transcription, music technology, deep learning, music information retrieval, transcribe into tabs & chords, chordify, music renditions, songsterr, reverbnation, tabulature, bollywood chords, ultimate guitar, yousician, guitar lessons, acoustic guitar, electric guitar, guitar tuner, 911 tabs