Guitar Tabs for Lancer Theme - Deltarune

(/) Slide Up  (\) Slide Down  (h) Hammer On  (p) Pull Off  (b) Bend (r) Release (v) Vibrato (x) Muted

Tabs for Song : 
BPM : 200

Song lyrics here 
E|-----------------------------------------------------------------------------------
B|-----------------------------------------------------2-----2-----------------------
G|--------------------0-----1-----------------0-----1-----1-----1--------0-----------
D|--------------2-----------------------2--------------------------2-----------------
A|-----------4-----------------------4-----------------------------------------------
E|-----------------------------------------------------------------------------------

E|--------------------------------------------------------------------------------------------
B|--------------------------------------------------------------------------------------------
G|--------------------------------------------------------------------------------------------
D|--------------------2-----4-----------------2-----4-----2-----------------1-----------------
A|-----------1--4--------------------1--4--------------------------3-----------3-----------4--
E|-----------------------------------------------------------------------------------4--------

E|-----------------------------------------------------------------------------------
B|-----------------------------------------------------2-----2-----------------------
G|--------------------0-----1-----------------0-----1-----1-----1--------0-----------
D|--------------2-----------------------2--------------------------2-----------------
A|-----------4-----------------------4-----------------------------------------------
E|-----------------------------------------------------------------------------------

E|--------------------------------------------------------------------------------------------
B|--------------------------------------------------------------------------------------------
G|--------------------------------------------------------------------------------------------
D|--------------------2-----4-----------------2-----4-----2-----------------1-----------------
A|-----------1--4--------------------1--4--------------------------3-----------3-----------4--
E|-----------------------------------------------------------------------------------4--------

E|--------------------------0--------0--------------------------------------------
B|--------------2-----4-----------------4-----2-----1-----2-----4-----------------
G|-----------1-----------------------------------------------------------1--------
D|--------------------------------------------------------------------------------
A|--------------------------------------------------------------------------------
E|--------------------------------------------------------------------------------

E|-----0-----------0--------7-----6--------------6--7-----6-----5--------5--5-----7--
B|-----------2-----------------------------------------------------------------------
G|-----------------------------------------------------------------------------------
D|-----------------------------------------------------------------------------------
A|-----------------------------------------------------------------------------------
E|-----------------------------------------------------------------------------------

E|-----4-----2-----0-----0--2-----4--------------------------------
B|-----------------------------------4-----------0-----4-----2-----
G|--------------------------------------4-----1--------------------
D|-----------------------------------------------------------------
A|-----------------------------------------------------------------
E|-----------------------------------------------------------------

E|--------------------------------0--------0--------------------------------------------
B|--------------------2-----4-----------------4-----2-----1-----2-----4-----------------
G|--1--2-----3-----1-----------------------------------------------------------1--------
D|--------------------------------------------------------------------------------------
A|--------------------------------------------------------------------------------------
E|--------------------------------------------------------------------------------------

E|--0-----------0--------7-----6-----------6--7-----6-----5--------5--5-----7--
B|--------2--------------------------------------------------------------------
G|-----------------------------------------------------------------------------
D|-----------------------------------------------------------------------------
A|-----------------------------------------------------------------------------
E|-----------------------------------------------------------------------------

E|-----4--------2--------0--------0-----2--------4-----4-----4-----4--------4--
B|-----------------------------------------------------------------------------
G|-----------------------------------------------------------------------------
D|-----------------------------------------------------------------------------
A|-----------------------------------------------------------------------------
E|-----------------------------------------------------------------------------

Song lyrics here 


Use manual mode to free up cursor. Paste any tab in acousterr tab maker and we'll play it !!!
tabs and chords, guitar tabs, music transcription, music technology, deep learning, music information retrieval, transcribe into tabs & chords, chordify, music renditions, songsterr, reverbnation, tabulature, bollywood chords, ultimate guitar, yousician, guitar lessons, acoustic guitar, electric guitar, guitar tuner, 911 tabs