Guitar Tabs for Koppången

(/) Slide Up  (\) Slide Down  (h) Hammer On  (p) Pull Off  (b) Bend (r) Release (v) Vibrato (x) Muted

Tabs for Song : 

Song lyrics here
E|--------------------------------------------------------------------------------------------------------------------
B|-----------7--7--7--------------7--8--7--------------7-----8--7--12-10-14-15-12-------------------------------------
G|-----6--7-----------9-----6--7-----------9-----7--9-----7-----------------------12-9--7--6------6h-7p6--4--6--7-----
D|--9--------------------9--------------------------------------------------------------------------------------------
A|--------------------------------------------------------------------------------------------------------------------
E|--------------------------------------------------------------------------------------------------------------------

E|---------------------------------------------------------------------------------------------12-14-14---------
B|--7--7--7--------------7-----8--7--------------7-----8--7--12-10-14-15-12----12-15-14----15----------15-15-14-
G|-----------9-----6--7-----7--------9-----7--9-----7-----------------------12----------------------------------
D|--------------9-----------------------------------------------------------------------------------------------
A|--------------------------------------------------------------------------------------------------------------
E|--------------------------------------------------------------------------------------------------------------

E|---12-15-15-14-14----12-------12-12h14-14-14-15-14h15p14-12---------------------12-15-14----15-14----12-14-15-17-15----
B|-----------------15-------15-------------------------------15-15-14-14-12-12-10----------------------------------------
G|-----------------------------------------------------------------------------------------------------------------------
D|-----------------------------------------------------------------------------------------------------------------------
A|-----------------------------------------------------------------------------------------------------------------------
E|-----------------------------------------------------------------------------------------------------------------------

E|--14-15-17-17-14--------------------------------------------------------------------------------
B|-----------------15-12-------10-------10-12/15\12-10-------------------------------------------
G|--------------------------------12-11----------------12-11-9-----6--7-----6---6h-7p6--4--6--7--
D|--------------------------------------------------------------9--------------------------------
A|-----------------------------------------------------------------------------------------------
E|-----------------------------------------------------------------------------------------------



Song lyrics here
E|--
B|--
G|--
D|--
A|--
E|--

Paste any tab in acousterr's tab maker and we'll play it !!!
Now supports capo and sound effects for vibrato/pull-off/hammer/bends/mutes etc !!! Checkout help section
tabs and chords, guitar tabs, music transcription, music technology, deep learning, music information retrieval, transcribe into tabs & chords, chordify, music renditions, songsterr, reverbnation, tabulature, bollywood chords, ultimate guitar, yousician, guitar lessons, acoustic guitar, electric guitar, guitar tuner, 911 tabs