Guitar Tabs for Kgkm March2018

(/) Slide Up  (\) Slide Down  (h) Hammer On  (p) Pull Off  (b) Bend (r) Release (v) Vibrato (x) Muted

Tabs for Song : 

Song lyrics here
-Capo on 4th fret-
E|-----------------------1--1--1-----0-------------------0-----------------------
B|--1--1-----1--1-1-1----3--3--3-----1----------------------1-----1--0--------1--
G|--2--2-----------------3--3--3-----2--------------0h2--------2--------0-----2--
D|--2--2-----2--2-2-2----3--3--3-----3-----------3-------------------------2--2--
A|-----------3--3-3-3----1--1--1-----3-------------------------------------------
E|-----------------------1--1--1-----1--------1----------------------0-----------

Song lyrics here
E|--------0--------------1--------1--------0-----------0--------------x--x--x-----x--x--x--
B|-----------1-----1--------3--------3--------------------0-----0-----x--x--x-----x--x--x--
G|-----0h2------2--------------2--------2--------0-----------0--------5--5--5-----4--4--4--
D|--0h2---------------------------------------------2-----------------4--4--4-----3--3--3--
A|--------------------------------------------2-----------------------6--6--6-----5--5--5--
E|--------------------------------------------------------------------4--4--4-----3--3--3--

Paste any tab in acousterr's tab maker and we'll play it !!!
Now supports capo and sound effects for vibrato/pull-off/hammer/bends/mutes etc !!! Checkout help section
tabs and chords, guitar tabs, music transcription, music technology, deep learning, music information retrieval, transcribe into tabs & chords, chordify, music renditions, songsterr, reverbnation, tabulature, bollywood chords, ultimate guitar, yousician, guitar lessons, acoustic guitar, electric guitar, guitar tuner, 911 tabs