Guitar Tabs for Keunggulan Terbilang

(/) Slide Up  (\) Slide Down  (h) Hammer On  (p) Pull Off  (b) Bend (r) Release (v) Vibrato (x) Muted

Tabs for Song : 

Song lyrics here
E|--------------------------------------------------------
B|--------------------------------------------------------
G|--------------------------5--------5--7-----7--7--7--7--
D|--5--7--8--5-----5--7--8-----7--8-----------------------
A|--------------------------------------------------------
E|--------------------------------------------------------

E|--------------------------------------------------------------------------------------
B|--6--6--6-----6--5--------------------------------------------------------------------
G|--------------------7--------7-----------------------5-----------5--7-----7--7--7--7--
D|-----------------------7--8--------5--7--8-----7--8--------7--8-----------------------
A|--------------------------------------------------------------------------------------
E|--------------------------------------------------------------------------------------

E|-----------------------------------------------------------
B|--6--6--5--------------------------------------------------
G|--------------7--7--------7-----------------------7--------
D|--------------------7--8-----------5--5--7--8--------8--7--
A|-----------------------------------------------------------
E|-----------------------------------------------------------

E|--------------------------------------------------------------------5--
B|-----------5--5-----------5--6--6--------5--6-----5--6--8-----6--8-----
G|-----5--7--------------7--------------7--------------------------------
D|--5-----------------7--------------------------------------------------
A|-----------------------------------------------------------------------
E|-----------------------------------------------------------------------

Martabat Keilmuwan Cendiakawan Beriman
E|--------------------------------------------------------
B|--6--6--5-----------------------------------------------
G|--------------7--7--------7--------------------7--------
D|--------------------7--8--------5--5--7--8--------8--7--
A|--------------------------------------------------------
E|--------------------------------------------------------

E|-----------------------------------------------------
B|--------5--6--6--8--5--------5--6--5--6--5--5--------
G|-----7--------------------7--------------------7--7--
D|--7--------------------------------------------------
A|-----------------------------------------------------
E|-----------------------------------------------------

E|--------------------------------------------
B|--------------------------------------------
G|--5--------------------7--7--5--------------
D|-----5--7--8--7-----------------5--7--8--7--
A|--------------------------------------------
E|--------------------------------------------

--

Paste any tab in acousterr's tab maker and we'll play it !!!
Now supports capo and sound effects for vibrato/pull-off/hammer/bends/mutes etc !!! Checkout help section
tabs and chords, guitar tabs, music transcription, music technology, deep learning, music information retrieval, transcribe into tabs & chords, chordify, music renditions, songsterr, reverbnation, tabulature, bollywood chords, ultimate guitar, yousician, guitar lessons, acoustic guitar, electric guitar, guitar tuner, 911 tabs