Guitar Tabs for Keranamu Malaysia

(/) Slide Up  (\) Slide Down  (h) Hammer On  (p) Pull Off  (b) Bend (r) Release (v) Vibrato (x) Muted

Tabs for Song : 

Song lyrics here
E|-----------------------------------------------------8--8--8-----7---5p7--5--------------
B|--8--8--6--5--6--8--------8--8--5--6--8---------5\8--------------------------8--6--5-----
G|--------------------------------------------------------------------------------------7--
D|-----------------------------------------------------------------------------------------
A|-----------------------------------------------------------------------------------------
E|-----------------------------------------------------------------------------------------

E|-----------------------------------------------------7--7--7--5--------------------
B|--6--5-----5--6-----6--8--6--5-----5--6---------3\6--------------8------6p8--5-----
G|--------7-----------------------7-----------------------------------------------7--
D|-----------------------------------------------------------------------------------
A|-----------------------------------------------------------------------------------
E|-----------------------------------------------------------------------------------

E|-----------------------------------------------------------------------
B|--8--8--6--5--6--8--------8--8--5--6--8---------5\8-----10-10-10-8--10-
G|-----------------------------------------------------------------------
D|-----------------------------------------------------------------------
A|-----------------------------------------------------------------------
E|-----------------------------------------------------------------------

E|-----------7--8-----8--8--8--7-----7--8--------5--7--8--8--8-----7--8--8--7--8--
B|------8\10----------------------8-----------------------------------------------
G|--------------------------------------------------------------------------------
D|--------------------------------------------------------------------------------
A|--------------------------------------------------------------------------------
E|--------------------------------------------------------------------------------

E|--------------------------------------
B|--15b15-13-12-------------13-13-15b15-
G|-----------------12-12-12-------------
D|--------------------------------------
A|--------------------------------------
E|--------------------------------------

Song lyrics here
E|--
B|--
G|--
D|--
A|--
E|--

Paste any tab in acousterr's tab maker and we'll play it !!!
Now supports capo and sound effects for vibrato/pull-off/hammer/bends/mutes etc !!! Checkout help section
tabs and chords, guitar tabs, music transcription, music technology, deep learning, music information retrieval, transcribe into tabs & chords, chordify, music renditions, songsterr, reverbnation, tabulature, bollywood chords, ultimate guitar, yousician, guitar lessons, acoustic guitar, electric guitar, guitar tuner, 911 tabs