Guitar Tabs for Julep

(/) Slide Up  (\) Slide Down  (h) Hammer On  (p) Pull Off  (b) Bend (r) Release (v) Vibrato (x) Muted

Tabs for Song : 

Song lyrics here
-
E|--------------------------------------0-----------------------------------------------0-----------
B|-----0-----0-----0-----------------------------------0-----0-----0--------------------------------
G|-----------------------2--0--2--0--------------------------------------2--0--2--2-----------------
D|--------------5-----------------------------------------------5-----------------------------------
A|--------------------2-----------------------------------------------2-----------------------------
E|--------3-----------------------0-----------------------3-----------------------0-----------------

E|--------------------0--------2-----0--------------------------------------------------0-----------
B|-----0-----3-----3--------3--------------3--2-----0--0-----0-----0--0-----------------------------
G|--0--------------------------------------------------------------------2--0--2--0-----------------
D|--------------5-----------------------------------------------5-----------------------------------
A|--------------------2-----------------------------------------------2-----------------------------
E|--------3--------------------0--------------------------3-----------------------0-----------------

E|-----------------------------------0-----------
B|--0-----3-----3--0-----------------------------
G|--------------------2--0--2--0-----------------
D|-----------5-----------------------------------
A|-----------------2-----------------------------
E|-----3-----------------------0-----------------


E|--7--7-----5--5-----2--2-----2--------0-----------7--7-----5--5-----2--2-----2--------0--
B|--7--7-----5--5-----2--2-----2-----3--------------7--7-----5--5-----2--2-----2-----3-----
G|--------------------------4-----------------------------------------------4--------------
D|--------------5-----------------------------------------------5--------------------------
A|--------------------2-----------------------------------------------2--------------------
E|--------3-----------------------0-----------------------3-----------------------0--------

E|--------0-----------0-----------0-----5-----0-----------------------------------------------------
B|---2h3---------2h3---------2h3--------------------3--2--0-----------------------------3--2--0-----
G|-----------------------------------------------------------------------------------------------2--
D|--------------------------------------------------0-----------0-----------0-----------0-----------
A|--------------------------------------------------------------------------------------------------
E|--------------------------------------------------------------------------------------------------

E|--------------------------------------0-----------------------------------------------2--------
B|--------0-----------0-----------0-----------0-----------0-----------0-----------0-----------0--
G|--1--2--------1--2--------1--2--------------------0--2--------0--2--------0--2-----------------
D|-----------------------------------------------------------------------------------------------
A|-----------------------------------------------------------------------------------------------
E|-----------------------------------------------------------------------------------------------

E|-----------------------------------------------------------------------------------
B|-----------------------------------------------------------------------------------
G|--------0--2-----0-----------0--2-----0-----------0--2-----0-----------0--2-----0--
D|-----------------------------------------------------------------------------------
A|--4--------------------4--------------------4--------------------4-----------------
E|-----------------------------------------------------------------------------------

E|--------------------------------------------------------------------------------------------------
B|--------------------------------------------------------------------------------------------------
G|-----------2--------------------2--------------------2--------------------2-----------------------
D|--------4--------4-----------4--------4-----------4--------4-----------4--------4-----------------
A|--4--------------------4--------------------4--------------------4--------------------------------
E|--------------------------------------------------------------------------------------------------

E|--------------------------------------------------------------------------2--------------0--
B|-----------------------------------------------------2--------------------2-----------------
G|-----------2--------------------2--------------------2--------------------2-----------------
D|--------4--------4-----------4--------4-----------4--------4-----------4--------4-----------
A|--4--------------------4--------------------4--------------------4--------------------4-----
E|--------------------------------------------------------------------------------------------

E|--------------------------------------0-----------------------------------------------0-----------
B|-----0-----0-----0-----------------------------------0-----0-----0--------------------------------
G|-----------------------2--0--2--0--------------------------------------2--0--2--2-----------------
D|--------------5-----------------------------------------------5-----------------------------------
A|--------------------2-----------------------------------------------2-----------------------------
E|--------3-----------------------0-----------------------3-----------------------0-----------------


E|--------------------0--------2-----0-----------------2-----0-----------------2-----0-----------------
B|-----0-----3-----3--------3--------------3--2-----0--------------3--2-----0--------------3--2-----0--
G|--0--------------------------------------------------------------------------------------------------
D|--------------5--------------------------------------0-----------------------------------------------
A|--------------------2--------------------------------------------------------4-----------------------
E|--------3--------------------0-----------------------------------------------------------------------

Paste any tab in acousterr's tab maker and we'll play it !!!
Now supports capo and sound effects for vibrato/pull-off/hammer/bends/mutes etc !!! Checkout help section

--------------|-Dave
       G/D         G6/D      G/D        G6/D      G/D         G6/D

tabs and chords, guitar tabs, music transcription, music technology, deep learning, music information retrieval, transcribe into tabs & chords, chordify, music renditions, songsterr, reverbnation, tabulature, bollywood chords, ultimate guitar, yousician, guitar lessons, acoustic guitar, electric guitar, guitar tuner, 911 tabs