Guitar Tabs for Jubreakit Jubuwit

(/) Slide Up  (\) Slide Down  (h) Hammer On  (p) Pull Off  (b) Bend (r) Release (v) Vibrato

Tabs for Song : 

Song lyrics here
E|--------------------------------------------------------------------------------------------------------------------------------
B|--------------------------------------------------------------------------------------------------------------------------------
G|-----------7-----------7-----------7--------------------------------------7-----------7-----------7--------------------------7--
D|-----7-----------5-----------4--------------------------------------7-----------5-----------4--------------------------------7--
A|--5-----5-----5-----5-----5-----5-----5--------4--5--7--5--4--5--5-----5-----5-----5-----5-----5-----5--------4--5--7--5--4--5--
E|-----------------------------------------5--5-----------------------------------------------------------5--5--------------------

Song lyrics here
E|--------------------------------------------------------------------------------------------------------------------------------------------------------------------------------------------------------------
B|--------------------------------------------------------------------------------------------------------------------------------------------------------------------------------------------------------------
G|--7--------7--------------------------------------7--------7--------------------------------------------7--------7--------------------------------------7--------7--------------------------------------7-----
D|--7-----------5-----4-----7--------7--------------7-----------5-----4-----7--------7--------------------7-----------5-----4-----7--------7--------------7-----------5-----4-----7--------7--------------7-----
A|--5-----5-----------------7-----------5-----4-----5-----5--------------5--7-----------9--7--9--7--5-----5-----5-----------------7-----------5-----4-----5-----5--------------5--7-----------9--7--9--7--5-----
E|--------------------------5-----5-----------------------------------------5-----5-----------------------------------------------5-----5-----------------------------------------5-----5-----------------------


Now supports capo and sound effects for vibrato/pull-off/hammer/bends etc !!! Checkout help section

(/) Slide Up  (\) Slide Down  (h) Hammer On  (p) Pull Off  (b) Bend (r) Release (v) Vibrato
?
Tabs for Song : 
?
Song lyrics here
E|--------------------------------------------------------------------------------------------------------------------------------
B|--------------------------------------------------------------------------------------------------------------------------------
G|-----------7-----------7-----------7--------------------------------------7-----------7-----------7--------------------------7--
D|-----7-----------5-----------4--------------------------------------7-----------5-----------4--------------------------------7--
A|--5-----5-----5-----5-----5-----5-----5--------4--5--7--5--4--5--5-----5-----5-----5-----5-----5-----5--------4--5--7--5--4--5--
E|-----------------------------------------5--5-----------------------------------------------------------5--5--------------------
?
Song lyrics here
E|--------------------------------------------------------------------------------------------------------------------------------------------------------------------------------------------------------------
B|--------------------------------------------------------------------------------------------------------------------------------------------------------------------------------------------------------------
G|--7--------7--------------------------------------7--------7--------------------------------------------7--------7--------------------------------------7--------7--------------------------------------7-----
D|--7-----------5-----4-----7--------7--------------7-----------5-----4-----7--------7--------------------7-----------5-----4-----7--------7--------------7-----------5-----4-----7--------7--------------7-----
A|--5-----5-----------------7-----------5-----4-----5-----5--------------5--7-----------9--7--9--7--5-----5-----5-----------------7-----------5-----4-----5-----5--------------5--7-----------9--7--9--7--5-----
E|--------------------------5-----5-----------------------------------------5-----5-----------------------------------------------5-----5-----------------------------------------5-----5-----------------------
?
Now supports capo and sound effects for vibrato/pull-off/hammer/bends etc !!! Checkout help section
?
E|--------------------------------------------------------------------------------------------------------------------------------------------------------------------
B|--------------------------------------------------------------------------------------------------------------------------------------------------------------------
G|--------------------------------------------------------------------------------------------------------------------------------------------------------------------
D|--7--7--7--7--7--7--4--4--4--4--4--5--------------------------------------7--7--7--7--7--7--4--4--4--4--4--5--------------------------------------------7--7--7--7--
A|--5--5--5--5--5--5--5--5--5--5--5--5--7--7--7--7--7--7--4--4--4--4--4--5--5--5--5--5--5--5--5--5--5--5--5--5--7--7--7--7--7--7--4--4--4--4--4--5--7--7--5--5--5--5--
E|--------------------------------------5--5--5--5--5--5--5--5--5--5--5--5--------------------------------------5--5--5--5--5--5--5--5--5--5--5--5--5--5--------------

E|-----------------------------------------------------------------------------------------------------------------------------------------------------------------------------------------------------------
B|-----------------------------------------------------------------------------------------------------------------------------------------------------------------------------------------------------------
G|--7--------7--------------------------------------7--------7--------------------------------------------7--------7--------------------------------------7--------7--------------------------------------7--
D|--7-----------5-----4-----7--------7--------------7-----------5-----4-----7--------7--------------------7-----------5-----4-----7--------7--------------7-----------5-----4-----7--------7--------------7--
A|--5-----5-----------------7-----------5-----4-----5-----5--------------5--7-----------9--7--9--7--5-----5-----5-----------------7-----------5-----4-----5-----5--------------5--7-----------9--7--9--7--5--
E|--------------------------5-----5-----------------------------------------5-----5-----------------------------------------------5-----5-----------------------------------------5-----5--------------------


E|--------------------------------------------------------------------------------------------------------------------------------
B|--------------------------------------------------------------------------------------------------------------------------------
G|-----------7-----------7-----------7--------------------------------------7-----------7-----------7--------------------------7--
D|-----7-----------5-----------4--------------------------------------7-----------5-----------4--------------------------------7--
A|--5-----5-----5-----5-----5-----5-----5--------4--5--7--5--4--5--5-----5-----5-----5-----5-----5-----5--------4--5--7--5--4--5--
E|-----------------------------------------5--5-----------------------------------------------------------5--5--------------------


E|--2-----2--2-----2--2--2--2--2--3-----3--3-----3--3--3--3--3--2-----2--2-----2--2--2--2--2--------------------------------2-----2--2-----2--2--2--2--2--
B|--3-----3--3-----3--3--3--3--3--3-----3--3-----3--3--3--3--3--3-----3--3-----3--3--3--3--3--2-----2--2-----2--2--2--2--2--3-----3--3-----3--3--3--3--3--
G|--2-----2--2-----2--2--2--2--2--------------------------------2-----2--2-----2--2--2--2--2--2-----2--2-----2--2--2--2--2--2-----2--2-----2--2--2--2--2--
D|--0-----0--0-----0--0--0--0--0--------------------------------0-----0--0-----0--0--0--0--0--2-----2--2-----2--2--2--2--2--0-----0--0-----0--0--0--0--0--
A|--------------------------------2-----2--2-----2--2--2--2--2--------------------------------------------------------------------------------------------
E|--------------------------------3-----3--3-----3--3--3--3--3--------------------------------------------------------------------------------------------





tabs and chords, guitar tabs, music contests, music covers, songsterr, reverbnation, renditions, tabulature, bollywood chords, ultimate guitar, yousician, guitar lessons, torrins, fender, gibson, acoustic guitar, electric guitar, youtube covers, gootar, guitar tuner, A-Z tabs, 911 tabs