Guitar Tabs for Jojo Siwa- Worldwide Party (part 1)

(/) Slide Up  (\) Slide Down  (h) Hammer On  (p) Pull Off  (b) Bend (r) Release (v) Vibrato (x) Muted

Tabs & Chords
BPM : 170.0
Check Track 2 for Chord Positions 

       Cm             A#                D#                G#          Cm          A#          
E|--------------------------------------------------------------8-----------------------------
B|--------------------------------------8-----------------------------9-----------6--8--6--6--
G|-----8-----8--8-----8--------8--------------8--8--8-----8-----------------8-----------------
D|--------------------------8-----6-----------------------------------------------------------
A|--------------------------------------------------------------------------------------------
E|--------------------------------------------------------------------------------------------

                D#                         Cm       A#                   D#             Cm    A# 
E|-----0-----------------------------------------------------------------------------------------
B|--------6--------------------------------8-----0--------------------------------------8-----0--
G|--------------8-----7-----6--6--8--8--------------8--------7-----8-----------8--8--------------
D|-----------------------------------------------------------------------8-----------------------
A|-----------------------------------------------------------------------------------------------
E|-----------------------------------------------------------------------------------------------

                               D#                               D#m                     
E|--------------0-----------------------------------------------------------------------
B|-----------6-----------------------7--6-----10----6--------------------6--------8-----
G|-----8-----------------------8-----------------------8--8-----8-----8--------7--------
D|--------------------------------------------------------------------------------------
A|--------------------------------------------------------------------------------------
E|-----------------6-----------------------------------------------------------------1--

Guitar Tabs for Jojo Siwa- Worldwide Party (part 1)






       Cm             A#                D#                G#          Cm          A#          
E|-----3--------------1-----------------6-----------------4-----------3-----------1-----------
B|-----4--------------3-----------------8-----------------4-----------4-----------3-----------
G|-----5--------------3-----------------8-----------------5-----------5-----------3-----------
D|-----5--------------3-----------------8-----------------6-----------5-----------3-----------
A|-----3--------------1-----------------6-----------------6-----------3-----------1-----------
E|--------------------------------------------------------4-----------------------------------

                D#                         Cm       A#                   D#             Cm    A# 
E|--------------6--------------------------3--------1--------------------6--------------3-----1--
B|--------------8--------------------------4--------3--------------------8--------------4-----3--
G|--------------8--------------------------5--------3--------------------8--------------5-----3--
D|--------------8--------------------------5--------3--------------------8--------------5-----3--
A|--------------6--------------------------3--------1--------------------6--------------3-----1--
E|-----------------------------------------------------------------------------------------------

                               D#                               D#m                     
E|-----------------------------6--------------------------------6-----------------------
B|-----------------------------8--------------------------------7-----------------------
G|-----------------------------8--------------------------------8-----------------------
D|-----------------------------8--------------------------------8-----------------------
A|-----------------------------6--------------------------------6-----------------------
E|--------------------------------------------------------------------------------------

tabs and chords, guitar tabs, music transcription, music technology, deep learning, music information retrieval, transcribe into tabs & chords, chordify, music renditions, songsterr, reverbnation, tabulature, bollywood chords, ultimate guitar, yousician, guitar lessons, acoustic guitar, electric guitar, guitar tuner, 911 tabs