Guitar Tabs for Jojo Siwa- Worldwide Party (part 3)

(/) Slide Up  (\) Slide Down  (h) Hammer On  (p) Pull Off  (b) Bend (r) Release (v) Vibrato (x) Muted

Tabs & Chords
BPM : 110.0
Check Track 2 for Chord Positions 

          A#    G#    D#    Cm             A#                G#    D#                            
E|--------------------------------3--------------0-----------------20-0-----1--------0--1-----1--
B|--4-----4--3--4-----4-----4-----------0--4--------4--------------------------4-----------------
G|-----------------------------------------------------------------------------------------------
D|-----------------------------------------------------------1-----------------------------------
A|-----------------------------------------------------1-----------------------------------------
E|-----------------------------------------------------------------------------------------------

                            F     D#                                                    D#       
E|-----2--5-----------------3--------0-----0--------------0--2-----4-----------------------------
B|-----------4--2-----3-----------4-----------3-----3-----------------------------------4--------
G|--------------------------------------------------------------------------------------------3--
D|-----------------------------------------------------------------------------------------------
A|-----------------------------------------------------------------------------------------------
E|--------------------------------------------------------------------1-----1--1-----------------

             Cm                A#          G#       D#                      
E|--------------------------------------1--1--------------1--3--1--0-----9--
B|-----4-----1-----4-----3-----4-----4--------1-----4-----------------------
G|--------------------------------------------------------------------------
D|--------------------------------------------------------------------------
A|--------------------------------------------------------------------1-----
E|--------------------------------------------------------------------------

Guitar Tabs for Jojo Siwa- Worldwide Party (part 3)






          A#    G#    D#    Cm             A#                G#    D#                            
E|--------1-----4-----6-----3--------------1-----------------4-----6-----------------------------
B|--------3-----4-----8-----4--------------3-----------------4-----8-----------------------------
G|--------3-----5-----8-----5--------------3-----------------5-----8-----------------------------
D|--------3-----6-----8-----5--------------3-----------------6-----8-----------------------------
A|--------1-----6-----6-----3--------------1-----------------6-----6-----------------------------
E|--------------4--------------------------------------------4-----------------------------------

                            F     D#                                                    D#       
E|--------------------------1-----6-----------------------------------------------------6--------
B|--------------------------1-----8-----------------------------------------------------8--------
G|--------------------------2-----8-----------------------------------------------------8--------
D|--------------------------3-----8-----------------------------------------------------8--------
A|--------------------------3-----6-----------------------------------------------------6--------
E|--------------------------1--------------------------------------------------------------------

             Cm                A#          G#       D#                      
E|-----------3-----------------1-----------4--------6-----------------------
B|-----------4-----------------3-----------4--------8-----------------------
G|-----------5-----------------3-----------5--------8-----------------------
D|-----------5-----------------3-----------6--------8-----------------------
A|-----------3-----------------1-----------6--------6-----------------------
E|-----------------------------------------4--------------------------------

tabs and chords, guitar tabs, music transcription, music technology, deep learning, music information retrieval, transcribe into tabs & chords, chordify, music renditions, songsterr, reverbnation, tabulature, bollywood chords, ultimate guitar, yousician, guitar lessons, acoustic guitar, electric guitar, guitar tuner, 911 tabs