Guitar Tabs for Jojo Siwa- Worldwide Party (part 2)

(/) Slide Up  (\) Slide Down  (h) Hammer On  (p) Pull Off  (b) Bend (r) Release (v) Vibrato (x) Muted

Tabs & Chords
BPM : 170.0
Check Track 2 for Chord Positions 

          D#                      D#                               G#       D#                
E|--6-----------6-----0--------5-----0--------------------------------------------------------
B|--------6-----------------3-----4--------------4--4--3-----------4--4--------------4--6--4--
G|-----------------------------------------6-----------------6--------------3--3--------------
D|--------------------------------------------------------------------------------------------
A|--------------------------------------------------------------------------------------------
E|--------------------------------------------------------------------------------------------

       Cm          A#                         G#          D#                   A#             A# 
E|-----------------------------------------------------------------------------0-----------------
B|-----------4-----3--------------4--6--4-----------4-----4-----------4--6-----------------------
G|-----5-----------------3--3-----------------5-----------------3--------------------------------
D|-----------------------------------------------------------------------------------------------
A|-----------------------------------------------------------------------------------------------
E|--------------------------------------------------------------------------------------6-----6--

                   D#                   G#                      Cm             A#             
E|--------------------------------------------------------------------------------3-----------
B|--------------------------4--------------4-----------------------------4-----6-----6-----6--
G|--------------------------------------------------------------------0-----------------------
D|--------------------------------------------------------------3-----------------------------
A|--------------------------------6-----6--------6--6-----6-----------------------------------
E|-----6--6-----6--6--6-----------------------------------------------------------------------

       D#                                     
E|-----------------------------------3--------
B|-----4--4--------------4-----4-----------0--
G|--------------6--6--6-----------------------
D|--------------------------------------------
A|--------------------------------------------
E|--------------------------------------------

Guitar Tabs for Jojo Siwa- Worldwide Party (part 2)






          D#                      D#                               G#       D#                
E|--------6-----------------------6--------------------------------4--------6-----------------
B|--------8-----------------------8--------------------------------4--------8-----------------
G|--------8-----------------------8--------------------------------5--------8-----------------
D|--------8-----------------------8--------------------------------6--------8-----------------
A|--------6-----------------------6--------------------------------6--------6-----------------
E|-----------------------------------------------------------------4--------------------------

       Cm          A#                         G#          D#                   A#             A# 
E|-----3-----------1--------------------------4-----------6--------------------1--------------1--
B|-----4-----------3--------------------------4-----------8--------------------3--------------3--
G|-----5-----------3--------------------------5-----------8--------------------3--------------3--
D|-----5-----------3--------------------------6-----------8--------------------3--------------3--
A|-----3-----------1--------------------------6-----------6--------------------1--------------1--
E|--------------------------------------------4--------------------------------------------------

                   D#                   G#                      Cm             A#             
E|-----------------6--------------------4-----------------------3--------------1--------------
B|-----------------8--------------------4-----------------------4--------------3--------------
G|-----------------8--------------------5-----------------------5--------------3--------------
D|-----------------8--------------------6-----------------------5--------------3--------------
A|-----------------6--------------------6-----------------------3--------------1--------------
E|--------------------------------------4-----------------------------------------------------

       D#                                     
E|-----6--------------------------------------
B|-----8--------------------------------------
G|-----8--------------------------------------
D|-----8--------------------------------------
A|-----6--------------------------------------
E|--------------------------------------------

tabs and chords, guitar tabs, music transcription, music technology, deep learning, music information retrieval, transcribe into tabs & chords, chordify, music renditions, songsterr, reverbnation, tabulature, bollywood chords, ultimate guitar, yousician, guitar lessons, acoustic guitar, electric guitar, guitar tuner, 911 tabs