Guitar Tabs for Jojo Siwa- Worldwide Party (part 6)

(/) Slide Up  (\) Slide Down  (h) Hammer On  (p) Pull Off  (b) Bend (r) Release (v) Vibrato (x) Muted

Tabs & Chords
BPM : 110.0
Check Track 2 for Chord Positions 

          G#    Cm          A#    G#    D# Cm             A#                G#m      A#       
E|--------------------------------3-----------------3--------------0--------11----------4--3--
B|-----4--4-----4--4--4-----6-----------------4-----------4--4--6-----4-----------------------
G|--------------------------------------------------------------------------------------------
D|--------------------------------------------------------------------------------------------
A|--------------------------------------------------------------------------------------------
E|--4-----------------------------------3--3-----------------------------------------6--------

             G#    D#             Cm       A#                   D#          
E|--4--3-----------4--4--3-----6--3--3-----4--3--4--3--------------11-------
B|-----------4--------------------------------------------4-----------------
G|--------------------------------------------------------------------------
D|--------------------------------------------------------------------------
A|--------------------------------------------------------------6-----------
E|--------------------------------------------------------------------1-----

Guitar Tabs for Jojo Siwa- Worldwide Party (part 6)






          G#    Cm          A#    G#    D# Cm             A#                G#m      A#       
E|--------4-----3-----------1-----4-----6--3--------------1-----------------4--------1--------
B|--------4-----4-----------3-----4-----8--4--------------3-----------------4--------3--------
G|--------5-----5-----------3-----5-----8--5--------------3-----------------4--------3--------
D|--------6-----5-----------3-----6-----8--5--------------3-----------------6--------3--------
A|--------6-----3-----------1-----6-----6--3--------------1-----------------6--------1--------
E|--------4-----------------------4-----------------------------------------4-----------------

             G#    D#             Cm       A#                   D#          
E|-----------4-----6--------------3--------1--------------------6-----------
B|-----------4-----8--------------4--------3--------------------8-----------
G|-----------5-----8--------------5--------3--------------------8-----------
D|-----------6-----8--------------5--------3--------------------8-----------
A|-----------6-----6--------------3--------1--------------------6-----------
E|-----------4--------------------------------------------------------------

tabs and chords, guitar tabs, music transcription, music technology, deep learning, music information retrieval, transcribe into tabs & chords, chordify, music renditions, songsterr, reverbnation, tabulature, bollywood chords, ultimate guitar, yousician, guitar lessons, acoustic guitar, electric guitar, guitar tuner, 911 tabs