Guitar Tabs for Jojo Siwa- Worldwide Party (part 5)

(/) Slide Up  (\) Slide Down  (h) Hammer On  (p) Pull Off  (b) Bend (r) Release (v) Vibrato (x) Muted

Tabs & Chords
BPM : 110.0
Check Track 2 for Chord Positions 

    G# Cm    A#                   D#       G#          D#                   Cm          A#       
E|-----3--------4-----3-----------11-------------------------------------------------------------
B|-----------4--------------4--------4--------0--4--------------------6--4--------4-----3--------
G|-----------------------------------------5-----------------3--------------5-----------------3--
D|-----------------------------------------------------------------------------------------------
A|-----------------------------------------------------6--------6--------------------------------
E|--3--------------------------------------------------------------------------------------------

                G#          D#                         A#                         Cm          
E|-----------------------------------------------------3-----6--3--6--3--3--6--3--3-----------
B|--6--4--6--4--------4-----4-----------4--4--------------------------------------------4--4--
G|--------------5-----------------3-----------------------------------------------------------
D|-----------------------------------------------3--------------------------------------------
A|--------------------------------------------------------------------------------------------
E|--------------------------------------------------------------------------------------------

       A#          D#                G#          Cm    A#                         
E|-----------------3-----------------------------------3--3-----------6-----------
B|-----4--------4--------4--4--4--0--4-----------4--------------6--------------4--
G|-----------3--------------------------------------------------------------------
D|--------------------------------------------------------------------------------
A|--------------------------------------6--------------------------------6--------
E|--------------------------------------------------------------------------------

Guitar Tabs for Jojo Siwa- Worldwide Party (part 5)






    G# Cm    A#                   D#       G#          D#                   Cm          A#       
E|--4--3-----1--------------------6--------4-----------6--------------------3-----------1--------
B|--4--4-----3--------------------8--------4-----------8--------------------4-----------3--------
G|--5--5-----3--------------------8--------5-----------8--------------------5-----------3--------
D|--6--5-----3--------------------8--------6-----------8--------------------5-----------3--------
A|--6--3-----1--------------------6--------6-----------6--------------------3-----------1--------
E|--4--------------------------------------4-----------------------------------------------------

                G#          D#                         A#                         Cm          
E|--------------4-----------6--------------------------1--------------------------3-----------
B|--------------4-----------8--------------------------3--------------------------4-----------
G|--------------5-----------8--------------------------3--------------------------5-----------
D|--------------6-----------8--------------------------3--------------------------5-----------
A|--------------6-----------6--------------------------1--------------------------3-----------
E|--------------4-----------------------------------------------------------------------------

       A#          D#                G#          Cm    A#                         
E|-----1-----------6-----------------4-----------3-----1--------------------------
B|-----3-----------8-----------------4-----------4-----3--------------------------
G|-----3-----------8-----------------5-----------5-----3--------------------------
D|-----3-----------8-----------------6-----------5-----3--------------------------
A|-----1-----------6-----------------6-----------3-----1--------------------------
E|-----------------------------------4--------------------------------------------

tabs and chords, guitar tabs, music transcription, music technology, deep learning, music information retrieval, transcribe into tabs & chords, chordify, music renditions, songsterr, reverbnation, tabulature, bollywood chords, ultimate guitar, yousician, guitar lessons, acoustic guitar, electric guitar, guitar tuner, 911 tabs