Guitar Tabs for Jojo Siwa- Hold The Drama (part 3)

(/) Slide Up  (\) Slide Down  (h) Hammer On  (p) Pull Off  (b) Bend (r) Release (v) Vibrato (x) Muted

Tabs & Chords
BPM : 125.0
Check Track 2 for Chord Positions 

                B                                         Em       G           D     Bm          
E|--19-------------------0--0-----------0--------------------------------------------------------
B|-----8--8--6--6-----4--------4-----4--------------6-----4--0-----------------------7--7-----7--
G|--------------------------------------------6--------------------7-----7-----7-----------------
D|-----------------------------------------------------------------------------------------------
A|-----------------------------------------------------------------------------------------------
E|-----------------------------------------------------------------------------------------------

                               A                 G                 D           Bm             
E|-----------------------------------------5--------------------------------------------------
B|--7--------0--4--------------0--------------7--7-----------7-----------------0--------------
G|--------7--------7--7--------------7-----------------7-----------7--7--7--------------------
D|-----------------------7--------------------------------------------------------------------
A|--------------------------------------------------------------------------------------------
E|--------------------------------------------------------------------------------7-----7--7--

       A                                                                       
E|--------------------7-----5-----------------5--------------------5-----------
B|-----------------0-----7--------4-----6-----------7--7-----7--8--------------
G|-----------7--------------------------------------------------------------7--
D|-----------------------------------------------------------------------------
A|-----0--0--------------------------------------------------------------------
E|-----------------------------------------------------------------------7-----

Guitar Tabs for Jojo Siwa- Hold The Drama (part 3)






                B                                         Em       G           D     Bm          
E|--------------2-----------------------------------------0--------3-----------2-----2-----------
B|--------------4-----------------------------------------0--------3-----------3-----3-----------
G|--------------4-----------------------------------------0--------4-----------2-----4-----------
D|--------------4-----------------------------------------2--------5-----------0-----4-----------
A|--------------2-----------------------------------------2--------5-----------------2-----------
E|--------------------------------------------------------0--------3-----------------------------

                               A                 G                 D           Bm             
E|-----------------------------0-----------------3-----------------2-----------2--------------
B|-----------------------------2-----------------3-----------------3-----------3--------------
G|-----------------------------2-----------------4-----------------2-----------4--------------
D|-----------------------------2-----------------5-----------------0-----------4--------------
A|-----------------------------0-----------------5-----------------------------2--------------
E|-----------------------------------------------3--------------------------------------------

       A                                                                       
E|-----0-----------------------------------------------------------------------
B|-----2-----------------------------------------------------------------------
G|-----2-----------------------------------------------------------------------
D|-----2-----------------------------------------------------------------------
A|-----0-----------------------------------------------------------------------
E|-----------------------------------------------------------------------------

tabs and chords, guitar tabs, music transcription, music technology, deep learning, music information retrieval, transcribe into tabs & chords, chordify, music renditions, songsterr, reverbnation, tabulature, bollywood chords, ultimate guitar, yousician, guitar lessons, acoustic guitar, electric guitar, guitar tuner, 911 tabs