Guitar Tabs for Jojo Siwa- Hold The Drama (part 4)

(/) Slide Up  (\) Slide Down  (h) Hammer On  (p) Pull Off  (b) Bend (r) Release (v) Vibrato (x) Muted

Tabs & Chords
BPM : 125.0
Check Track 2 for Chord Positions 

                                                                         E                    
E|--------------------------------------------0--------------------------------------19-19-17-
B|-----------------------14-------14-------------------------14-------------------------------
G|--------------------16----16----------14-------------16----------16----16----16-16----------
D|-----16----------------------------17-------------------------------------------------------
A|-----------18-18----------------------------------------------------------------------------
E|--------------------------------------------------7-----------------------------------------

                                                 B                                Bm          
E|--17-17----19-14-19-14----15-17-17-17----19----19-19-17----17----19-14-14----------------19-
B|--------------------------------------------------------------------------------------------
G|--------------------------------------------------------------------------------16-16-------
D|--------------------------------------------------------------------------------------------
A|--------------------------------------------------------------------------------------------
E|--------------------------------------------------------------------------------------------

                                                                                              
E|--19----17-17-------------------17-19-19----19-17-17-17----19-14-14-------------------17-19-
B|--------------------------------------------------------------------------------17----------
G|--------------------------------------------------------------------------------------------
D|--------------------15----17----------------------------------------------------------------
A|--------------18----------------------------------------------------------------------------
E|--------------------------------------------------------------------------------------------

                               
E|--------------------------0--
B|-----------------------0-----
G|-----------------------------
D|--------------16-------------
A|-----18-18----------17-------
E|-----------------------------

Guitar Tabs for Jojo Siwa- Hold The Drama (part 4)






                                                                         E                    
E|-----------------------------------------------------------------------0--------------------
B|-----------------------------------------------------------------------0--------------------
G|-----------------------------------------------------------------------1--------------------
D|-----------------------------------------------------------------------2--------------------
A|-----------------------------------------------------------------------2--------------------
E|-----------------------------------------------------------------------0--------------------

                                                 B                                Bm          
E|-----------------------------------------------2--------------------------------2-----------
B|-----------------------------------------------4--------------------------------3-----------
G|-----------------------------------------------4--------------------------------4-----------
D|-----------------------------------------------4--------------------------------4-----------
A|-----------------------------------------------2--------------------------------2-----------
E|--------------------------------------------------------------------------------------------

                                                                                              
E|--------------------------------------------------------------------------------------------
B|--------------------------------------------------------------------------------------------
G|--------------------------------------------------------------------------------------------
D|--------------------------------------------------------------------------------------------
A|--------------------------------------------------------------------------------------------
E|--------------------------------------------------------------------------------------------

                               
E|-----------------------------
B|-----------------------------
G|-----------------------------
D|-----------------------------
A|-----------------------------
E|-----------------------------

tabs and chords, guitar tabs, music transcription, music technology, deep learning, music information retrieval, transcribe into tabs & chords, chordify, music renditions, songsterr, reverbnation, tabulature, bollywood chords, ultimate guitar, yousician, guitar lessons, acoustic guitar, electric guitar, guitar tuner, 911 tabs