Guitar Tabs for Jojo Siwa- Hold The Drama (part 5)

(/) Slide Up  (\) Slide Down  (h) Hammer On  (p) Pull Off  (b) Bend (r) Release (v) Vibrato (x) Muted

Tabs & Chords
BPM : 125.0
Check Track 2 for Chord Positions 

             Bm    A                       B                             B                 Bm 
E|-----------------------------------------------------17-17-19-------------------------------
B|-----------------------------------0-----0-----0--------------------------------------------
G|-----------------------------------------------------------------------------------------17-
D|--19-21----21----21----19-19-21----------------------------------21-------21----21-21-------
A|-----------------------------------------------------------------------20-------------------
E|--------------------------------------------------------------------------------------------

             Bm                                     B                    Bm                   
E|--------------0--0-----------------17-17-17-19----------0-----17-17----------0--0-----------
B|--------------------------19-19-------------------0-----------------------------------------
G|--------------------------------------------------------------------------------------------
D|-----------21----------------------------------------------------------21-------------17-19-
A|--------------------------------------------------------------------------------------------
E|--------------------------------------------------------------------------------------------

                                           
E|-----------------------------------------
B|--------------------------------0--0--0--
G|-----------------18----------------------
D|--------------------19-------------------
A|--17----18-17-17-------------------------
E|-----------------------17----20----------

Guitar Tabs for Jojo Siwa- Hold The Drama (part 5)






             Bm    A                       B                             B                 Bm 
E|-----------2-----0-----------------------2-----------------------------2-----------------2--
B|-----------3-----2-----------------------4-----------------------------4-----------------3--
G|-----------4-----2-----------------------4-----------------------------4-----------------4--
D|-----------4-----2-----------------------4-----------------------------4-----------------4--
A|-----------2-----0-----------------------2-----------------------------2-----------------2--
E|--------------------------------------------------------------------------------------------

             Bm                                     B                    Bm                   
E|-----------2--------------------------------------2--------------------2--------------------
B|-----------3--------------------------------------4--------------------3--------------------
G|-----------4--------------------------------------4--------------------4--------------------
D|-----------4--------------------------------------4--------------------4--------------------
A|-----------2--------------------------------------2--------------------2--------------------
E|--------------------------------------------------------------------------------------------

                                           
E|-----------------------------------------
B|-----------------------------------------
G|-----------------------------------------
D|-----------------------------------------
A|-----------------------------------------
E|-----------------------------------------

tabs and chords, guitar tabs, music transcription, music technology, deep learning, music information retrieval, transcribe into tabs & chords, chordify, music renditions, songsterr, reverbnation, tabulature, bollywood chords, ultimate guitar, yousician, guitar lessons, acoustic guitar, electric guitar, guitar tuner, 911 tabs