Guitar Tabs for Jojo Siwa- Hold The Drama (part 2)

(/) Slide Up  (\) Slide Down  (h) Hammer On  (p) Pull Off  (b) Bend (r) Release (v) Vibrato (x) Muted

Tabs & Chords
BPM : 125.0
Check Track 2 for Chord Positions 

    G     D                    Bm          A                                                     
E|-----------------------0--------------------7--------------------------------------------------
B|--7--------------------------7-----0-----------------0--0-----8--10----------------8--10-------
G|--------7--7--7--7--7--------------------7-----10----------------------------------------------
D|-----------------------------------------------------------10----------------------------------
A|-----------------------------------------------------------------------------------------------
E|-----------------------------------------------------------------------7-----7--------------7--

          A                                                                    F#m   B        
E|-----------7-----------0-----11----7--9-----0--9-----7-----7-----8-----7--------------7-----
B|--------10-------7-----------------------0--------8--------------------------7-----7-----7--
G|--7-----------------------------------------------------------------------------------------
D|--------------------------------------------------------------------------------------------
A|--------------------------------------------------------------------------------------------
E|--------------------------------------------------------------------------------------------

                               F#m                        
E|--------------7-----------------------------------------
B|-----------------------10----------------0--------------
G|-----8--------------10----10-10----------------0--------
D|-----------8--------------------------------------------
A|-----------------------------------9--------------------
E|--------------------------------------------------0--0--

Guitar Tabs for Jojo Siwa- Hold The Drama (part 2)






    G     D                    Bm          A                                                     
E|--3-----2--------------------2-----------0-----------------------------------------------------
B|--3-----3--------------------3-----------2-----------------------------------------------------
G|--4-----2--------------------4-----------2-----------------------------------------------------
D|--5-----0--------------------4-----------2-----------------------------------------------------
A|--5--------------------------2-----------0-----------------------------------------------------
E|--3--------------------------------------------------------------------------------------------

          A                                                                    F#m   B        
E|--------0--------------------------------------------------------------------2-----2--------
B|--------2--------------------------------------------------------------------2-----4--------
G|--------2--------------------------------------------------------------------2-----4--------
D|--------2--------------------------------------------------------------------4-----4--------
A|--------0--------------------------------------------------------------------4-----2--------
E|-----------------------------------------------------------------------------2--------------

                               F#m                        
E|-----------------------------2--------------------------
B|-----------------------------2--------------------------
G|-----------------------------2--------------------------
D|-----------------------------4--------------------------
A|-----------------------------4--------------------------
E|-----------------------------2--------------------------

tabs and chords, guitar tabs, music transcription, music technology, deep learning, music information retrieval, transcribe into tabs & chords, chordify, music renditions, songsterr, reverbnation, tabulature, bollywood chords, ultimate guitar, yousician, guitar lessons, acoustic guitar, electric guitar, guitar tuner, 911 tabs