Guitar Tabs for Jojo Siwa- Hold The Drama (part 5)

(/) Slide Up  (\) Slide Down  (h) Hammer On  (p) Pull Off  (b) Bend (r) Release (v) Vibrato (x) Muted

Tabs & Chords
BPM : 125.0
Check Track 2 for Chord Positions 

                         G                       D              Bm                         A  
E|--17-------------21----21----------------------------------------------------0--------------
B|-----18----------------------0--------------------------------------------------------------
G|--------------------------------------------------------------------------------------------
D|-----------17----------------------------16-16----------------16-16----16-------------------
A|-----------------------------------17----------17----17----17----------------------17-17-17-
E|--------------------------------------------------------------------------------------------

                         G              D        Bm                A                             
E|-----------------------------------------------------------------------------------------------
B|-----------------------------------------------------------------------------------------------
G|-----------------------------------------------------------------------16----------------------
D|--------------16-16-------------16-------------------------------------------17-19----------19-
A|--0-----0--------------17-17----------17-17----17-17-------------0--17----------------18-------
E|--------------------------------------------------------7--7-----------------------------------

                                  Em                                  
E|--------------------------------------------------------------------
B|-----------------------------------------------16----------------0--
G|-----------------------------------------------------16-------------
D|-----16-17-19-------------19-------17-19----------------------------
A|--------------------17----------17----------18----------------------
E|-----------------7-----------------------------------------20-20----

Guitar Tabs for Jojo Siwa- Hold The Drama (part 5)






                         G                       D              Bm                         A  
E|-----------------------3-----------------------2--------------2--------------------------0--
B|-----------------------3-----------------------3--------------3--------------------------2--
G|-----------------------4-----------------------2--------------4--------------------------2--
D|-----------------------5-----------------------0--------------4--------------------------2--
A|-----------------------5--------------------------------------2--------------------------0--
E|-----------------------3--------------------------------------------------------------------

                         G              D        Bm                A                             
E|-----------------------3--------------2--------2-----------------0-----------------------------
B|-----------------------3--------------3--------3-----------------2-----------------------------
G|-----------------------4--------------2--------4-----------------2-----------------------------
D|-----------------------5--------------0--------4-----------------2-----------------------------
A|-----------------------5-----------------------2-----------------0-----------------------------
E|-----------------------3-----------------------------------------------------------------------

                                  Em                                  
E|--------------------------------0-----------------------------------
B|--------------------------------0-----------------------------------
G|--------------------------------0-----------------------------------
D|--------------------------------2-----------------------------------
A|--------------------------------2-----------------------------------
E|--------------------------------0-----------------------------------

tabs and chords, guitar tabs, music transcription, music technology, deep learning, music information retrieval, transcribe into tabs & chords, chordify, music renditions, songsterr, reverbnation, tabulature, bollywood chords, ultimate guitar, yousician, guitar lessons, acoustic guitar, electric guitar, guitar tuner, 911 tabs