Guitar Tabs for Jo Bhi Kasmein

jage jage rehte the...
E|--------------------------------------------------------------------------8---8\7-----7-----
B|--5--5--6--8---6p5--5--5--5--5--6--8---6p5--5--5-----5--5--6--8---6p5--5--------------------
G|--------------------------------------------------------------------------------------------
D|--------------------------------------------------------------------------------------------
A|--------------------------------------------------------------------------------------------
E|--------------------------------------------------------------------------------------------

kabhi tanhayi me
E|--7--7--8--10--8p7--7--7--7--7--8--10--8p7--7--7-----7--7--8--10--8p7--7--8---7h-8p7-----------
B|-----------------------------------------------------------------------------------------10----
G|-----------------------------------------------------------------------------------------------
D|-----------------------------------------------------------------------------------------------
A|-----------------------------------------------------------------------------------------------
E|-----------------------------------------------------------------------------------------------


kitne tere kareeb tha...
E|-----5--8--7--5--7-----5--5---5h-7p5-----5--------5--8--7--5--7-----5--5---5h-7p5-----------
B|--5--------------------------------------------6------------------------------------8\6-----
G|--------------------------------------------------------------------------------------------
D|--------------------------------------------------------------------------------------------
A|--------------------------------------------------------------------------------------------
E|--------------------------------------------------------------------------------------------

honto pe rehta tha...
E|---3/5--7--5--5--7--5--5--7--5--5---5h-7p5--------------------
B|--------------------------------------------8---6/8-----6-----
G|--------------------------------------------------------------
D|--------------------------------------------------------------
A|--------------------------------------------------------------
E|--------------------------------------------------------------

kya tumhe yaad hai...
E|---5/8--7---8p7--5-----7---5h-7p5--5------5/8--7---8p7--5-----7---5h-7p5------------5/8--7---8p7--5-----7---5h-7p5--5--
B|---------------------------------------------------------------------------8\6-----------------------------------------
G|-----------------------------------------------------------------------------------------------------------------------
D|-----------------------------------------------------------------------------------------------------------------------
A|-----------------------------------------------------------------------------------------------------------------------
E|-----------------------------------------------------------------------------------------------------------------------

whistle
E|--------------------------------------------------12-10-------------------------
B|-----------13-12-10----------------10-------------------13-12-10-------10-12----
G|--9-----9-----------12-9--9-----12-------9-----9-----------------12-------------
D|--------------------------------------------------------------------------------
A|--------------------------------------------------------------------------------
E|--------------------------------------------------------------------------------

whistle
E|-----------------------------------------
B|-----------13-12-10----------------10----
G|--9-----9-----------12-9--9-----12-------
D|-----------------------------------------
A|-----------------------------------------
E|-----------------------------------------

Intro Lead
E|-----------------------------------------------------
B|---8/10-10-8--10-12-13-12h13p12-12----12h13p12-------
G|-----------------------------------14----------14-12-
D|-----------------------------------------------------
A|-----------------------------------------------------
E|-----------------------------------------------------

E|-----------------------------------------
B|-----------------12-13-12h13p12-12-------
G|--12h14-14-12-14-------------------14----
D|-----------------------------------------
A|-----------------------------------------
E|-----------------------------------------

E|--12-------------------------------------
B|-----15-13-12----------12h13p12----------
G|--------------14-12-14-------------14----
D|-----------------------------------------
A|-----------------------------------------
E|-----------------------------------------
tabs and chords, guitar tabs, music transcription, music technology, deep learning, music information retrieval, transcribe into tabs & chords, chordify, music renditions, songsterr, reverbnation, tabulature, bollywood chords, ultimate guitar, yousician, guitar lessons, acoustic guitar, electric guitar, guitar tuner, 911 tabs